  0
SECTION
  2
TABLES
  0
TABLE
  2
LTYPE
 70
      2
  0
LTYPE
  2
CONTINUOUS
 70
     64
  3
Solid Line
 72
     65
 73
      0
 40
0.0
  0
LTYPE
  2
HIDDEN
 70
     64
  3
- - - - - - - - - - - - 
 72
     65
 73
2
 40
0.375
 49
0.25
 49
-0.125
  0
ENDTAB
  0
TABLE
  2
LAYER
 70
    16
  0
LAYER
  2
0
 70
     0
 62
7
 6
HIDDEN
  0
LAYER
  2
1
 70
     0
 62
7
 6
CONTINUOUS
0
LAYER
  2
2
 70
     0
 62
7
 6
CONTINUOUS
0
LAYER
  2
3
 70
     0
 62
7
 6
CONTINUOUS
0
LAYER
  2
4
 70
     0
 62
7
 6
CONTINUOUS
0
LAYER
  2
5
 70
     0
 62
7
 6
CONTINUOUS
0
LAYER
  2
6
 70
     0
 62
7
 6
CONTINUOUS
0
LAYER
  2
7
 70
     0
 62
7
 6
CONTINUOUS
0
LAYER
  2
8
 70
     0
 62
7
 6
CONTINUOUS
0
LAYER
  2
9
 70
     0
 62
7
 6
CONTINUOUS
0
LAYER
  2
10
 70
     0
 62
7
 6
CONTINUOUS
0
LAYER
  2
11
 70
     0
 62
7
 6
CONTINUOUS
0
LAYER
  2
12
 70
     0
 62
7
 6
CONTINUOUS
0
LAYER
  2
13
 70
     0
 62
7
 6
CONTINUOUS
0
LAYER
  2
14
 70
     0
 62
7
 6
CONTINUOUS
0
LAYER
  2
15
 70
     0
 62
7
 6
CONTINUOUS
0
ENDTAB
  0
TABLE
  2
STYLE
 70
     1
  0
STYLE
  2
STANDARD
 70
     0
 40
0.0
 41
1.0
 50
0.0
 71
     0
 42
1.0
  3
TXT
  0
ENDTAB
  0
TABLE
  2
VIEW
 70
     0
  0
ENDTAB
  0
ENDSEC
  0
SECTION
  2
ENTITIES
  0
LINE
  8
1
 10
9.4
 20
9.2
 11
12.1
 21
9.2
  0
LINE
  8
1
 10
12.1
 20
8.9
 11
9.4
 21
8.9
  0
LINE
  8
1
 10
9.4
 20
8.5
 11
12.1
 21
8.5
  0
LINE
  8
1
 10
12.1
 20
8.2
 11
9.4
 21
8.2
  0
LINE
  8
1
 10
9.4
 20
7.7
 11
12.1
 21
7.7
  0
LINE
  8
1
 10
12.4
 20
7.1
 11
6.8
 21
7.1
  0
LINE
  8
1
 10
6.3
 20
7.9
 11
5.8
 21
7.9
  0
LINE
  8
1
 10
5.6
 20
8.2
 11
4.6
 21
8.2
  0
LINE
  8
1
 10
3.6
 20
7.3
 11
3.3
 21
7.3
  0
LINE
  8
1
 10
3.3
 20
6.9
 11
4.1
 21
6.9
  0
LINE
  8
1
 10
2.8
 20
6.9
 11
2.6
 21
6.9
  0
LINE
  8
1
 10
2.5
 20
6.6
 11
0.9
 21
6.6
  0
LINE
  8
1
 10
1.5
 20
7.4
 11
1.6
 21
7.4
  0
LINE
  8
1
 10
1.6
 20
7.7
 11
3.0
 21
7.7
  0
LINE
  8
1
 10
2.8
 20
7.3
 11
2.4
 21
7.3
  0
LINE
  8
1
 10
2.4
 20
8.3
 11
2.6
 21
8.3
  0
LINE
  8
1
 10
5.6
 20
5.6
 11
6.0
 21
5.6
  0
LINE
  8
1
 10
6.6
 20
6.1
 11
7.5
 21
6.1
  0
LINE
  8
1
 10
8.7
 20
6.2
 11
10.6
 21
6.2
  0
LINE
  8
1
 10
9.5
 20
6.0
 11
8.7
 21
6.0
  0
LINE
  8
1
 10
9.1
 20
6.9
 11
12.2
 21
6.9
  0
LINE
  8
1
 10
11.8
 20
5.2
 11
11.7
 21
5.2
  0
LINE
  8
1
 10
11.7
 20
5.1
 11
12.2
 21
5.1
  0
LINE
  8
1
 10
12.4
 20
5.0
 11
11.7
 21
5.0
  0
LINE
  8
1
 10
9.8
 20
5.0
 11
9.5
 21
5.0
  0
LINE
  8
1
 10
9.1
 20
4.0
 11
8.9
 21
4.0
  0
LINE
  8
1
 10
8.9
 20
3.8
 11
9.8
 21
3.8
  0
LINE
  8
1
 10
9.8
 20
3.7
 11
8.9
 21
3.7
  0
LINE
  8
1
 10
8.9
 20
3.6
 11
9.8
 21
3.6
  0
LINE
  8
1
 10
9.8
 20
3.6
 11
8.9
 21
3.6
  0
LINE
  8
1
 10
8.9
 20
3.5
 11
9.8
 21
3.5
  0
LINE
  8
1
 10
9.8
 20
3.4
 11
8.9
 21
3.4
  0
LINE
  8
1
 10
8.9
 20
3.3
 11
9.8
 21
3.3
  0
LINE
  8
1
 10
9.8
 20
3.2
 11
8.9
 21
3.2
  0
LINE
  8
1
 10
9.8
 20
2.8
 11
7.1
 21
2.8
  0
LINE
  8
1
 10
7.1
 20
3.4
 11
6.9
 21
3.4
  0
LINE
  8
1
 10
7.1
 20
3.5
 11
6.6
 21
3.5
  0
LINE
  8
1
 10
6.3
 20
3.6
 11
7.1
 21
3.6
  0
LINE
  8
1
 10
7.1
 20
3.7
 11
3.3
 21
3.7
  0
LINE
  8
1
 10
3.3
 20
2.0
 11
2.8
 21
2.0
  0
LINE
  8
1
 10
2.8
 20
1.4
 11
2.5
 21
1.4
  0
LINE
  8
1
 10
2.0
 20
1.4
 11
1.8
 21
1.4
  0
LINE
  8
1
 10
1.3
 20
1.9
 11
0.9
 21
1.9
  0
LINE
  8
1
 10
0.9
 20
3.5
 11
1.6
 21
3.5
  0
LINE
  8
1
 10
4.8
 20
2.6
 11
5.1
 21
2.6
  0
LINE
  8
1
 10
5.3
 20
2.1
 11
4.8
 21
2.1
  0
LINE
  8
1
 10
5.3
 20
1.5
 11
5.6
 21
1.5
  0
LINE
  8
1
 10
5.5
 20
1.2
 11
5.3
 21
1.2
  0
LINE
  8
1
 10
6.1
 20
1.5
 11
6.4
 21
1.5
  0
LINE
  8
1
 10
6.3
 20
2.0
 11
6.9
 21
2.0
  0
LINE
  8
1
 10
6.3
 20
3.1
 11
5.9
 21
3.1
  0
LINE
  8
1
 10
5.7
 20
3.4
 11
5.1
 21
3.4
  0
LINE
  8
1
 10
6.0
 20
3.8
 11
7.1
 21
3.8
  0
LINE
  8
1
 10
7.1
 20
3.9
 11
6.3
 21
3.9
  0
LINE
  8
1
 10
6.6
 20
4.0
 11
7.1
 21
4.0
  0
LINE
  8
1
 10
7.1
 20
4.1
 11
6.8
 21
4.1
  0
LINE
  8
1
 10
0.9
 20
6.6
 11
0.9
 21
2.5
  0
LINE
  8
1
 10
0.9
 20
2.0
 11
0.9
 21
1.3
  0
LINE
  8
1
 10
1.8
 20
1.4
 11
1.8
 21
1.9
  0
LINE
  8
1
 10
1.8
 20
2.1
 11
1.8
 21
3.2
  0
LINE
  8
1
 10
2.8
 20
2.0
 11
2.8
 21
1.4
  0
LINE
  8
1
 10
3.3
 20
2.0
 11
3.3
 21
3.7
  0
LINE
  8
1
 10
5.3
 20
1.9
 11
5.3
 21
1.4
  0
LINE
  8
1
 10
5.3
 20
1.4
 11
5.3
 21
1.1
  0
LINE
  8
1
 10
5.3
 20
1.3
 11
5.3
 21
1.5
  0
LINE
  8
1
 10
5.5
 20
1.2
 11
5.5
 21
0.8
  0
LINE
  8
1
 10
6.4
 20
1.5
 11
6.4
 21
2.0
  0
LINE
  8
1
 10
6.9
 20
2.0
 11
6.9
 21
3.4
  0
LINE
  8
1
 10
7.1
 20
3.3
 11
7.1
 21
2.8
  0
LINE
  8
1
 10
6.6
 20
3.1
 11
6.6
 21
3.5
  0
LINE
  8
1
 10
6.3
 20
3.6
 11
6.3
 21
3.1
  0
LINE
  8
1
 10
6.0
 20
3.8
 11
6.0
 21
5.6
  0
LINE
  8
1
 10
6.6
 20
6.1
 11
6.6
 21
4.0
  0
LINE
  8
1
 10
6.8
 20
4.1
 11
6.8
 21
7.1
  0
LINE
  8
1
 10
6.3
 20
7.9
 11
6.3
 21
3.9
  0
LINE
  8
1
 10
9.1
 20
4.0
 11
9.1
 21
6.9
  0
LINE
  8
1
 10
9.4
 20
7.7
 11
9.4
 21
9.2
  0
LINE
  8
1
 10
9.4
 20
9.2
 11
9.4
 21
9.0
  0
LINE
  8
1
 10
12.1
 20
9.2
 11
12.1
 21
7.7
  0
LINE
  8
1
 10
12.4
 20
7.1
 11
12.4
 21
5.0
  0
LINE
  8
1
 10
12.2
 20
5.1
 11
12.2
 21
6.9
  0
LINE
  8
1
 10
11.8
 20
6.3
 11
11.8
 21
5.2
  0
LINE
  8
1
 10
9.5
 20
5.0
 11
9.5
 21
6.0
  0
LINE
  8
1
 10
9.8
 20
3.1
 11
9.8
 21
2.8
  0
LINE
  8
1
 10
4.1
 20
6.9
 11
4.1
 21
8.2
  0
LINE
  8
1
 10
3.6
 20
8.2
 11
3.6
 21
7.3
  0
LINE
  8
1
 10
2.6
 20
6.9
 11
2.6
 21
8.1
  0
LINE
  8
1
 10
2.4
 20
8.1
 11
2.4
 21
8.3
  0
LINE
  8
1
 10
2.5
 20
7.7
 11
2.5
 21
6.6
  0
LINE
  8
1
 10
1.5
 20
7.0
 11
1.5
 21
7.2
  0
LINE
  8
1
 10
1.6
 20
7.4
 11
1.6
 21
7.7
  0
TEXT
  8
1
 10
10.02
 20
9.017
 40
0.06
  1
Suffolk Data Group
 41
1.333
  0
TEXT
  8
1
 10
9.82
 20
8.717
 40
0.06
  1
ADC unit for TheNet X-1J
 41
1.333
  0
TEXT
  8
1
 10
5.32
 20
8.617
 40
0.06
  1
(Adjust ADC
 41
1.333
  0
TEXT
  8
1
 10
5.42
 20
8.517
 40
0.06
  1
input range)
 41
1.333
  0
LINE
  8
1
 10
3.0
 20
8.7
 11
3.0
 21
8.74
  0
CIRCLE
  8
1
 10
3.0
 20
8.77
 40
0.03
  0
TEXT
  8
1
 10
2.88
 20
8.82
 40
0.06
  1
VCC
 41
1.333
  0
TEXT
  8
1
 10
3.22
 20
8.817
 40
0.06
  1
(+5V)
 41
1.333
  0
TEXT
  8
1
 10
2.22
 20
9.117
 40
0.06
  1
Deviation Meter circuit
 41
1.333
  0
TEXT
  8
1
 10
1.72
 20
7.717
 40
0.06
  1
-5V
 41
1.333
  0
TEXT
  8
1
 10
0.62
 20
7.417
 40
0.06
  1
-5V
 41
1.333
  0
TEXT
  8
1
 10
0.22
 20
7.317
 40
0.06
  1
Audio in
 41
1.333
  0
CIRCLE
  8
1
 10
1.23
 20
7.2
 40
0.03
  0
LINE
  8
1
 10
1.26
 20
7.2
 11
1.5
 21
7.2
  0
TEXT
  8
1
 10
1.06
 20
7.17
 40
0.06
  1
1
 41
1.333
  0
CIRCLE
  8
1
 10
1.23
 20
7.3
 40
0.03
  0
LINE
  8
1
 10
1.26
 20
7.3
 11
1.5
 21
7.3
  0
TEXT
  8
1
 10
1.06
 20
7.27
 40
0.06
  1
2
 41
1.333
  0
CIRCLE
  8
1
 10
1.23
 20
7.4
 40
0.03
  0
LINE
  8
1
 10
1.26
 20
7.4
 11
1.5
 21
7.4
  0
TEXT
  8
1
 10
1.06
 20
7.37
 40
0.06
  1
3
 41
1.333
  0
LINE
  8
1
 10
0.9
 20
7.5
 11
1.2
 21
7.5
  0
LINE
  8
1
 10
1.2
 20
7.5
 11
1.2
 21
7.1
  0
LINE
  8
1
 10
1.2
 20
7.1
 11
0.9
 21
7.1
  0
LINE
  8
1
 10
0.9
 20
7.1
 11
0.9
 21
7.5
  0
TEXT
  8
1
 10
0.95
 20
7.52
 40
0.06
  1
JP1
 41
1.333
  0
TEXT
  8
1
 10
0.82
 20
6.99
 40
0.06
  1
Header
 41
1.333
  0
LINE
  8
1
 10
1.6
 20
7.3
 11
1.5
 21
7.3
  0
LINE
  8
1
 10
1.8
 20
7.3
 11
1.9
 21
7.3
  0
LINE
  8
1
 10
1.74
 20
7.3
 11
1.9
 21
7.3
  0
LINE
  8
1
 10
1.7
 20
7.2
 11
1.7
 21
7.4
  0
LINE
  8
1
 10
1.6
 20
7.3
 11
1.7
 21
7.3
  0
ARC
  8
1
 10
1.9
 20
7.3
 40
0.16
 50
143
 51
180
  0
ARC
  8
1
 10
1.9
 20
7.3
 40
0.16
 50
180
 51
217
  0
LINE
  8
1
 10
1.655
 20
7.33
 11
1.655
 21
7.364
  0
LINE
  8
1
 10
1.638
 20
7.347
 11
1.672
 21
7.347
  0
TEXT
  8
1
 10
1.65
 20
7.08
 40
0.06
  1
C1
 41
1.333
  0
TEXT
  8
1
 10
1.65
 20
6.95
 40
0.06
  1
1uF
 41
1.333
  0
CIRCLE
  8
1
 10
2.6
 20
7.3
 40
0.02
  0
CIRCLE
  8
1
 10
2.6
 20
7.3
 40
0.01
  0
LINE
  8
1
 10
2.3
 20
8.1
 11
2.5
 21
8.1
  0
LINE
  8
1
 10
2.5
 20
8.1
 11
2.4
 21
8.0
  0
LINE
  8
1
 10
2.4
 20
8.0
 11
2.3
 21
8.1
  0
LINE
  8
1
 10
2.0
 20
7.3
 11
1.9
 21
7.3
  0
LINE
  8
1
 10
2.3
 20
7.3
 11
2.4
 21
7.3
  0
LINE
  8
1
 10
2.0
 20
7.3
 11
2.03
 21
7.33
  0
LINE
  8
1
 10
2.03
 20
7.33
 11
2.09
 21
7.27
  0
LINE
  8
1
 10
2.09
 20
7.27
 11
2.15
 21
7.33
  0
LINE
  8
1
 10
2.15
 20
7.33
 11
2.21
 21
7.27
  0
LINE
  8
1
 10
2.21
 20
7.27
 11
2.27
 21
7.33
  0
LINE
  8
1
 10
2.27
 20
7.33
 11
2.3
 21
7.3
  0
TEXT
  8
1
 10
2.05
 20
7.42
 40
0.06
  1
R1
 41
1.333
  0
TEXT
  8
1
 10
2.05
 20
7.12
 40
0.06
  1
10K
 41
1.333
  0
CIRCLE
  8
1
 10
3.6
 20
8.2
 40
0.02
  0
CIRCLE
  8
1
 10
3.6
 20
8.2
 40
0.01
  0
LINE
  8
1
 10
2.9
 20
8.3
 11
2.6
 21
8.3
  0
TEXT
  8
1
 10
2.61
 20
8.32
 40
0.06
  1
  3
 41
1.333
  0
LINE
  8
1
 10
2.9
 20
8.1
 11
2.6
 21
8.1
  0
TEXT
  8
1
 10
2.61
 20
8.12
 40
0.06
  1
  2
 41
1.333
  0
LINE
  8
1
 10
3.3
 20
8.2
 11
3.6
 21
8.2
  0
TEXT
  8
1
 10
3.37
 20
8.22
 40
0.06
  1
 1
 41
1.333
  0
LINE
  8
1
 10
3.0
 20
8.4
 11
3.0
 21
8.7
  0
TEXT
  8
1
 10
3.02
 20
8.47
 40
0.06
  1
4
 41
1.333
  0
LINE
  8
1
 10
3.0
 20
8.0
 11
3.0
 21
7.7
  0
TEXT
  8
1
 10
3.02
 20
7.86
 40
0.06
  1
1
 41
1.333
  0
TEXT
  8
1
 10
3.02
 20
7.78
 40
0.06
  1
1
 41
1.333
  0
LINE
  8
1
 10
2.9
 20
8.4
 11
3.3
 21
8.2
  0
LINE
  8
1
 10
3.3
 20
8.2
 11
2.9
 21
8.0
  0
LINE
  8
1
 10
2.9
 20
8.0
 11
2.9
 21
8.4
  0
LINE
  8
1
 10
3.0
 20
8.4
 11
3.0
 21
8.35
  0
LINE
  8
1
 10
3.0
 20
8.05
 11
3.0
 21
8.0
  0
LINE
  8
1
 10
2.93
 20
8.295
 11
2.964
 21
8.295
  0
LINE
  8
1
 10
2.947
 20
8.312
 11
2.947
 21
8.278
  0
LINE
  8
1
 10
2.93
 20
8.095
 11
2.964
 21
8.095
  0
TEXT
  8
1
 10
2.6
 20
8.61
 40
0.06
  1
U2A
 41
1.333
  0
TEXT
  8
1
 10
2.45
 20
8.49
 40
0.06
  1
LM324
 41
1.333
  0
LINE
  8
1
 10
3.7
 20
8.2
 11
3.6
 21
8.2
  0
LINE
  8
1
 10
4.0
 20
8.2
 11
4.1
 21
8.2
  0
LINE
  8
1
 10
3.8
 20
8.3
 11
3.8
 21
8.1
  0
LINE
  8
1
 10
3.8
 20
8.1
 11
3.9
 21
8.2
  0
LINE
  8
1
 10
3.9
 20
8.2
 11
3.8
 21
8.3
  0
LINE
  8
1
 10
3.9
 20
8.3
 11
3.9
 21
8.1
  0
LINE
  8
1
 10
3.7
 20
8.2
 11
3.8
 21
8.2
  0
LINE
  8
1
 10
3.9
 20
8.2
 11
4.0
 21
8.2
  0
LINE
  8
1
 10
3.81
 20
8.28
 11
3.81
 21
8.28
  0
LINE
  8
1
 10
3.82
 20
8.27
 11
3.81
 21
8.27
  0
LINE
  8
1
 10
3.81
 20
8.26
 11
3.83
 21
8.26
  0
LINE
  8
1
 10
3.84
 20
8.25
 11
3.81
 21
8.25
  0
LINE
  8
1
 10
3.81
 20
8.24
 11
3.85
 21
8.24
  0
LINE
  8
1
 10
3.86
 20
8.23
 11
3.81
 21
8.23
  0
LINE
  8
1
 10
3.81
 20
8.22
 11
3.87
 21
8.22
  0
LINE
  8
1
 10
3.88
 20
8.21
 11
3.81
 21
8.21
  0
LINE
  8
1
 10
3.81
 20
8.2
 11
3.89
 21
8.2
  0
LINE
  8
1
 10
3.88
 20
8.19
 11
3.81
 21
8.19
  0
LINE
  8
1
 10
3.81
 20
8.18
 11
3.87
 21
8.18
  0
LINE
  8
1
 10
3.86
 20
8.17
 11
3.81
 21
8.17
  0
LINE
  8
1
 10
3.81
 20
8.16
 11
3.85
 21
8.16
  0
LINE
  8
1
 10
3.84
 20
8.15
 11
3.81
 21
8.15
  0
LINE
  8
1
 10
3.81
 20
8.14
 11
3.83
 21
8.14
  0
LINE
  8
1
 10
3.82
 20
8.13
 11
3.81
 21
8.13
  0
LINE
  8
1
 10
3.81
 20
8.12
 11
3.81
 21
8.12
  0
TEXT
  8
1
 10
3.75
 20
8.46
 40
0.06
  1
D1
 41
1.333
  0
TEXT
  8
1
 10
3.62
 20
8.34
 40
0.06
  1
IN4148
 41
1.333
  0
LINE
  8
1
 10
2.9
 20
7.3
 11
2.8
 21
7.3
  0
LINE
  8
1
 10
3.2
 20
7.3
 11
3.3
 21
7.3
  0
LINE
  8
1
 10
3.0
 20
7.4
 11
3.0
 21
7.2
  0
LINE
  8
1
 10
3.0
 20
7.2
 11
3.1
 21
7.3
  0
LINE
  8
1
 10
3.1
 20
7.3
 11
3.0
 21
7.4
  0
LINE
  8
1
 10
3.1
 20
7.4
 11
3.1
 21
7.2
  0
LINE
  8
1
 10
2.9
 20
7.3
 11
3.0
 21
7.3
  0
LINE
  8
1
 10
3.1
 20
7.3
 11
3.2
 21
7.3
  0
LINE
  8
1
 10
3.01
 20
7.38
 11
3.01
 21
7.38
  0
LINE
  8
1
 10
3.02
 20
7.37
 11
3.01
 21
7.37
  0
LINE
  8
1
 10
3.01
 20
7.36
 11
3.03
 21
7.36
  0
LINE
  8
1
 10
3.04
 20
7.35
 11
3.01
 21
7.35
  0
LINE
  8
1
 10
3.01
 20
7.34
 11
3.05
 21
7.34
  0
LINE
  8
1
 10
3.06
 20
7.33
 11
3.01
 21
7.33
  0
LINE
  8
1
 10
3.01
 20
7.32
 11
3.07
 21
7.32
  0
LINE
  8
1
 10
3.08
 20
7.31
 11
3.01
 21
7.31
  0
LINE
  8
1
 10
3.01
 20
7.3
 11
3.09
 21
7.3
  0
LINE
  8
1
 10
3.08
 20
7.29
 11
3.01
 21
7.29
  0
LINE
  8
1
 10
3.01
 20
7.28
 11
3.07
 21
7.28
  0
LINE
  8
1
 10
3.06
 20
7.27
 11
3.01
 21
7.27
  0
LINE
  8
1
 10
3.01
 20
7.26
 11
3.05
 21
7.26
  0
LINE
  8
1
 10
3.04
 20
7.25
 11
3.01
 21
7.25
  0
LINE
  8
1
 10
3.01
 20
7.24
 11
3.03
 21
7.24
  0
LINE
  8
1
 10
3.02
 20
7.23
 11
3.01
 21
7.23
  0
LINE
  8
1
 10
3.01
 20
7.22
 11
3.01
 21
7.22
  0
TEXT
  8
1
 10
2.96
 20
7.57
 40
0.06
  1
D3
 41
1.333
  0
TEXT
  8
1
 10
2.81
 20
7.45
 40
0.06
  1
IN4148
 41
1.333
  0
CIRCLE
  8
1
 10
2.5
 20
7.7
 40
0.02
  0
CIRCLE
  8
1
 10
2.5
 20
7.7
 40
0.01
  0
LINE
  8
1
 10
5.5
 20
7.5
 11
5.7
 21
7.5
  0
LINE
  8
1
 10
5.7
 20
7.5
 11
5.6
 21
7.4
  0
LINE
  8
1
 10
5.6
 20
7.4
 11
5.5
 21
7.5
  0
LINE
  8
1
 10
4.7
 20
7.8
 11
4.9
 21
7.8
  0
LINE
  8
1
 10
4.9
 20
7.8
 11
4.8
 21
7.7
  0
LINE
  8
1
 10
4.8
 20
7.7
 11
4.7
 21
7.8
  0
LINE
  8
1
 10
5.6
 20
8.1
 11
5.6
 21
8.2
  0
LINE
  8
1
 10
5.6
 20
7.6
 11
5.6
 21
7.5
  0
LINE
  8
1
 10
5.7
 20
7.9
 11
5.8
 21
7.9
  0
LINE
  8
1
 10
5.6
 20
8.1
 11
5.6
 21
8.05
  0
LINE
  8
1
 10
5.6
 20
8.05
 11
5.63
 21
8.02
  0
LINE
  8
1
 10
5.63
 20
8.02
 11
5.57
 21
7.96
  0
LINE
  8
1
 10
5.57
 20
7.96
 11
5.63
 21
7.9
  0
LINE
  8
1
 10
5.63
 20
7.9
 11
5.57
 21
7.84
  0
LINE
  8
1
 10
5.57
 20
7.84
 11
5.63
 21
7.78
  0
LINE
  8
1
 10
5.63
 20
7.78
 11
5.57
 21
7.72
  0
LINE
  8
1
 10
5.57
 20
7.72
 11
5.6
 21
7.69
  0
LINE
  8
1
 10
5.6
 20
7.69
 11
5.6
 21
7.6
  0
LINE
  8
1
 10
5.63
 20
7.9
 11
5.68
 21
7.85
  0
LINE
  8
1
 10
5.68
 20
7.85
 11
5.68
 21
7.95
  0
LINE
  8
1
 10
5.68
 20
7.95
 11
5.63
 21
7.9
  0
LINE
  8
1
 10
5.68
 20
7.9
 11
5.7
 21
7.9
  0
LINE
  8
1
 10
5.67
 20
7.93
 11
5.67
 21
7.93
  0
LINE
  8
1
 10
5.66
 20
7.92
 11
5.67
 21
7.92
  0
LINE
  8
1
 10
5.67
 20
7.91
 11
5.65
 21
7.91
  0
LINE
  8
1
 10
5.64
 20
7.9
 11
5.67
 21
7.9
  0
LINE
  8
1
 10
5.67
 20
7.89
 11
5.65
 21
7.89
  0
LINE
  8
1
 10
5.66
 20
7.88
 11
5.67
 21
7.88
  0
LINE
  8
1
 10
5.67
 20
7.87
 11
5.67
 21
7.87
  0
TEXT
  8
1
 10
5.73
 20
8.14
 40
0.06
  1
R3
 41
1.333
  0
TEXT
  8
1
 10
5.71
 20
7.98
 40
0.06
  1
10K
 41
1.333
  0
CIRCLE
  8
1
 10
4.8
 20
8.2
 40
0.02
  0
CIRCLE
  8
1
 10
4.8
 20
8.2
 40
0.01
  0
LINE
  8
1
 10
4.2
 20
8.2
 11
4.1
 21
8.2
  0
LINE
  8
1
 10
4.5
 20
8.2
 11
4.6
 21
8.2
  0
LINE
  8
1
 10
4.2
 20
8.2
 11
4.23
 21
8.23
  0
LINE
  8
1
 10
4.23
 20
8.23
 11
4.29
 21
8.17
  0
LINE
  8
1
 10
4.29
 20
8.17
 11
4.35
 21
8.23
  0
LINE
  8
1
 10
4.35
 20
8.23
 11
4.41
 21
8.17
  0
LINE
  8
1
 10
4.41
 20
8.17
 11
4.47
 21
8.23
  0
LINE
  8
1
 10
4.47
 20
8.23
 11
4.5
 21
8.2
  0
TEXT
  8
1
 10
4.25
 20
8.32
 40
0.06
  1
R7
 41
1.333
  0
TEXT
  8
1
 10
4.25
 20
8.02
 40
0.06
  1
1K
 41
1.333
  0
CIRCLE
  8
1
 10
4.1
 20
8.2
 40
0.02
  0
CIRCLE
  8
1
 10
4.1
 20
8.2
 40
0.01
  0
LINE
  8
1
 10
4.8
 20
8.1
 11
4.8
 21
8.2
  0
LINE
  8
1
 10
4.8
 20
7.9
 11
4.8
 21
7.8
  0
LINE
  8
1
 10
4.8
 20
7.96
 11
4.8
 21
7.8
  0
LINE
  8
1
 10
4.7
 20
8.0
 11
4.9
 21
8.0
  0
LINE
  8
1
 10
4.8
 20
8.1
 11
4.8
 21
8.0
  0
ARC
  8
1
 10
4.8
 20
7.8
 40
0.16
 50
53
 51
90
  0
ARC
  8
1
 10
4.8
 20
7.8
 40
0.16
 50
90
 51
127
  0
LINE
  8
1
 10
4.83
 20
8.045
 11
4.864
 21
8.045
  0
LINE
  8
1
 10
4.847
 20
8.062
 11
4.847
 21
8.028
  0
TEXT
  8
1
 10
4.97
 20
8.02
 40
0.06
  1
C2
 41
1.333
  0
TEXT
  8
1
 10
4.97
 20
7.93
 40
0.06
  1
22uF
 41
1.333
  0
TEXT
  8
1
 10
9.52
 20
8.317
 40
0.06
  1
Author: G0JVU
 41
1.333
  0
TEXT
  8
1
 10
10.72
 20
8.317
 40
0.06
  1
Neville Pattinson
 41
1.333
  0
TEXT
  8
1
 10
10.32
 20
7.817
 40
0.06
  1
Revision 2.1
 41
1.333
  0
TEXT
  8
1
 10
10.12
 20
8.017
 40
0.06
  1
Date: 18th March 1994
 41
1.333
  0
CIRCLE
  8
1
 10
11.8
 20
6.1
 40
0.02
  0
CIRCLE
  8
1
 10
11.8
 20
6.1
 40
0.01
  0
LINE
  8
1
 10
11.5
 20
6.1
 11
11.8
 21
6.1
  0
TEXT
  8
1
 10
11.57
 20
6.12
 40
0.06
  1
 1
 41
1.333
  0
LINE
  8
1
 10
11.5
 20
6.3
 11
11.8
 21
6.3
  0
TEXT
  8
1
 10
11.57
 20
6.32
 40
0.06
  1
 2
 41
1.333
  0
CIRCLE
  8
1
 10
10.87
 20
6.2
 40
0.03
  0
LINE
  8
1
 10
10.84
 20
6.2
 11
10.6
 21
6.2
  0
TEXT
  8
1
 10
10.61
 20
6.22
 40
0.06
  1
  3
 41
1.333
  0
LINE
  8
1
 10
11.1
 20
6.0
 11
11.5
 21
6.0
  0
LINE
  8
1
 10
11.5
 20
6.0
 11
11.5
 21
6.4
  0
LINE
  8
1
 10
11.5
 20
6.4
 11
11.1
 21
6.4
  0
ARC
  8
1
 10
11.1
 20
6.2
 40
0.2
 50
180
 51
270
  0
ARC
  8
1
 10
11.1
 20
6.2
 40
0.2
 50
90
 51
180
  0
TEXT
  8
1
 10
11.15
 20
6.6
 40
0.06
  1
U3A
 41
1.333
  0
TEXT
  8
1
 10
11.03
 20
6.48
 40
0.06
  1
74HC00
 41
1.333
  0
LINE
  8
1
 10
8.4
 20
6.0
 11
8.7
 21
6.0
  0
TEXT
  8
1
 10
8.47
 20
6.02
 40
0.06
  1
 4
 41
1.333
  0
LINE
  8
1
 10
8.4
 20
6.2
 11
8.7
 21
6.2
  0
TEXT
  8
1
 10
8.47
 20
6.22
 40
0.06
  1
 5
 41
1.333
  0
CIRCLE
  8
1
 10
7.77
 20
6.1
 40
0.03
  0
LINE
  8
1
 10
7.74
 20
6.1
 11
7.5
 21
6.1
  0
TEXT
  8
1
 10
7.51
 20
6.12
 40
0.06
  1
  6
 41
1.333
  0
LINE
  8
1
 10
8.0
 20
5.9
 11
8.4
 21
5.9
  0
LINE
  8
1
 10
8.4
 20
5.9
 11
8.4
 21
6.3
  0
LINE
  8
1
 10
8.4
 20
6.3
 11
8.0
 21
6.3
  0
ARC
  8
1
 10
8.0
 20
6.1
 40
0.2
 50
180
 51
270
  0
ARC
  8
1
 10
8.0
 20
6.1
 40
0.2
 50
90
 51
180
  0
TEXT
  8
1
 10
8.03
 20
6.38
 40
0.06
  1
U3B
 41
1.333
  0
LINE
  8
1
 10
2.9
 20
6.9
 11
2.8
 21
6.9
  0
LINE
  8
1
 10
3.2
 20
6.9
 11
3.3
 21
6.9
  0
LINE
  8
1
 10
2.9
 20
6.9
 11
2.93
 21
6.93
  0
LINE
  8
1
 10
2.93
 20
6.93
 11
2.99
 21
6.87
  0
LINE
  8
1
 10
2.99
 20
6.87
 11
3.05
 21
6.93
  0
LINE
  8
1
 10
3.05
 20
6.93
 11
3.11
 21
6.87
  0
LINE
  8
1
 10
3.11
 20
6.87
 11
3.17
 21
6.93
  0
LINE
  8
1
 10
3.17
 20
6.93
 11
3.2
 21
6.9
  0
TEXT
  8
1
 10
2.96
 20
6.72
 40
0.06
  1
R2
 41
1.333
  0
TEXT
  8
1
 10
2.91
 20
6.57
 40
0.06
  1
100K
 41
1.333
  0
LINE
  8
1
 10
1.4
 20
7.0
 11
1.6
 21
7.0
  0
LINE
  8
1
 10
1.6
 20
7.0
 11
1.5
 21
6.9
  0
LINE
  8
1
 10
1.5
 20
6.9
 11
1.4
 21
7.0
  0
TEXT
  8
1
 10
0.42
 20
7.217
 40
0.06
  1
Shield
 41
1.333
  0
TEXT
  8
1
 10
3.82
 20
5.617
 40
0.06
  1
Signal Strength Meter
 41
1.333
  0
LINE
  8
1
 10
10.1
 20
5.5
 11
9.8
 21
5.5
  0
TEXT
  8
1
 10
10.17
 20
5.47
 40
0.06
  1
A0
 41
1.333
  0
TEXT
  8
1
 10
9.81
 20
5.52
 40
0.06
  1
 30
 41
1.333
  0
LINE
  8
1
 10
10.1
 20
5.4
 11
9.8
 21
5.4
  0
TEXT
  8
1
 10
10.17
 20
5.37
 40
0.06
  1
A1
 41
1.333
  0
TEXT
  8
1
 10
9.81
 20
5.42
 40
0.06
  1
 31
 41
1.333
  0
LINE
  8
1
 10
10.1
 20
5.3
 11
9.8
 21
5.3
  0
TEXT
  8
1
 10
10.17
 20
5.27
 40
0.06
  1
A2
 41
1.333
  0
TEXT
  8
1
 10
9.81
 20
5.32
 40
0.06
  1
 32
 41
1.333
  0
LINE
  8
1
 10
10.1
 20
5.2
 11
9.8
 21
5.2
  0
TEXT
  8
1
 10
10.17
 20
5.17
 40
0.06
  1
A3
 41
1.333
  0
TEXT
  8
1
 10
9.81
 20
5.22
 40
0.06
  1
 33
 41
1.333
  0
LINE
  8
1
 10
10.1
 20
5.1
 11
9.8
 21
5.1
  0
TEXT
  8
1
 10
10.17
 20
5.07
 40
0.06
  1
A4
 41
1.333
  0
TEXT
  8
1
 10
9.81
 20
5.12
 40
0.06
  1
 34
 41
1.333
  0
LINE
  8
1
 10
10.1
 20
5.0
 11
9.8
 21
5.0
  0
TEXT
  8
1
 10
10.17
 20
4.97
 40
0.06
  1
A5
 41
1.333
  0
TEXT
  8
1
 10
9.81
 20
5.02
 40
0.06
  1
 35
 41
1.333
  0
LINE
  8
1
 10
10.1
 20
4.9
 11
9.8
 21
4.9
  0
TEXT
  8
1
 10
10.17
 20
4.87
 40
0.06
  1
A6
 41
1.333
  0
TEXT
  8
1
 10
9.81
 20
4.92
 40
0.06
  1
 36
 41
1.333
  0
LINE
  8
1
 10
10.1
 20
4.8
 11
9.8
 21
4.8
  0
TEXT
  8
1
 10
10.17
 20
4.77
 40
0.06
  1
A7
 41
1.333
  0
TEXT
  8
1
 10
9.81
 20
4.82
 40
0.06
  1
 37
 41
1.333
  0
LINE
  8
1
 10
10.1
 20
4.7
 11
9.8
 21
4.7
  0
TEXT
  8
1
 10
10.17
 20
4.67
 40
0.06
  1
A8
 41
1.333
  0
TEXT
  8
1
 10
9.81
 20
4.72
 40
0.06
  1
 38
 41
1.333
  0
LINE
  8
1
 10
10.1
 20
4.6
 11
9.8
 21
4.6
  0
TEXT
  8
1
 10
10.17
 20
4.57
 40
0.06
  1
A9
 41
1.333
  0
TEXT
  8
1
 10
9.81
 20
4.62
 40
0.06
  1
 39
 41
1.333
  0
LINE
  8
1
 10
10.1
 20
4.5
 11
9.8
 21
4.5
  0
TEXT
  8
1
 10
10.17
 20
4.47
 40
0.06
  1
A10
 41
1.333
  0
TEXT
  8
1
 10
9.81
 20
4.52
 40
0.06
  1
 40
 41
1.333
  0
LINE
  8
1
 10
10.1
 20
4.4
 11
9.8
 21
4.4
  0
TEXT
  8
1
 10
10.17
 20
4.37
 40
0.06
  1
A11
 41
1.333
  0
TEXT
  8
1
 10
9.81
 20
4.42
 40
0.06
  1
  1
 41
1.333
  0
LINE
  8
1
 10
10.1
 20
4.3
 11
9.8
 21
4.3
  0
TEXT
  8
1
 10
10.17
 20
4.27
 40
0.06
  1
A12
 41
1.333
  0
TEXT
  8
1
 10
9.81
 20
4.32
 40
0.06
  1
  2
 41
1.333
  0
LINE
  8
1
 10
10.1
 20
4.2
 11
9.8
 21
4.2
  0
TEXT
  8
1
 10
10.17
 20
4.17
 40
0.06
  1
A13
 41
1.333
  0
TEXT
  8
1
 10
9.81
 20
4.22
 40
0.06
  1
  3
 41
1.333
  0
LINE
  8
1
 10
10.1
 20
4.1
 11
9.8
 21
4.1
  0
TEXT
  8
1
 10
10.17
 20
4.07
 40
0.06
  1
A14
 41
1.333
  0
TEXT
  8
1
 10
9.81
 20
4.12
 40
0.06
  1
  4
 41
1.333
  0
LINE
  8
1
 10
10.1
 20
4.0
 11
9.8
 21
4.0
  0
TEXT
  8
1
 10
10.17
 20
3.97
 40
0.06
  1
A15
 41
1.333
  0
TEXT
  8
1
 10
9.81
 20
4.02
 40
0.06
  1
  5
 41
1.333
  0
LINE
  8
1
 10
10.1
 20
3.8
 11
9.8
 21
3.8
  0
TEXT
  8
1
 10
10.17
 20
3.77
 40
0.06
  1
D0
 41
1.333
  0
TEXT
  8
1
 10
9.81
 20
3.82
 40
0.06
  1
 14
 41
1.333
  0
LINE
  8
1
 10
10.1
 20
3.7
 11
9.8
 21
3.7
  0
TEXT
  8
1
 10
10.17
 20
3.67
 40
0.06
  1
D1
 41
1.333
  0
TEXT
  8
1
 10
9.81
 20
3.72
 40
0.06
  1
 15
 41
1.333
  0
LINE
  8
1
 10
10.1
 20
3.6
 11
9.8
 21
3.6
  0
TEXT
  8
1
 10
10.17
 20
3.57
 40
0.06
  1
D2
 41
1.333
  0
TEXT
  8
1
 10
9.81
 20
3.62
 40
0.06
  1
 12
 41
1.333
  0
LINE
  8
1
 10
10.1
 20
3.5
 11
9.8
 21
3.5
  0
TEXT
  8
1
 10
10.17
 20
3.47
 40
0.06
  1
D3
 41
1.333
  0
TEXT
  8
1
 10
9.81
 20
3.52
 40
0.06
  1
  8
 41
1.333
  0
LINE
  8
1
 10
10.1
 20
3.4
 11
9.8
 21
3.4
  0
TEXT
  8
1
 10
10.17
 20
3.37
 40
0.06
  1
D4
 41
1.333
  0
TEXT
  8
1
 10
9.81
 20
3.42
 40
0.06
  1
  7
 41
1.333
  0
LINE
  8
1
 10
10.1
 20
3.3
 11
9.8
 21
3.3
  0
TEXT
  8
1
 10
10.17
 20
3.27
 40
0.06
  1
D5
 41
1.333
  0
TEXT
  8
1
 10
9.81
 20
3.32
 40
0.06
  1
  9
 41
1.333
  0
LINE
  8
1
 10
10.1
 20
3.2
 11
9.8
 21
3.2
  0
TEXT
  8
1
 10
10.17
 20
3.17
 40
0.06
  1
D6
 41
1.333
  0
TEXT
  8
1
 10
9.81
 20
3.22
 40
0.06
  1
 10
 41
1.333
  0
LINE
  8
1
 10
10.1
 20
3.1
 11
9.8
 21
3.1
  0
TEXT
  8
1
 10
10.17
 20
3.07
 40
0.06
  1
D7
 41
1.333
  0
TEXT
  8
1
 10
9.81
 20
3.12
 40
0.06
  1
 13
 41
1.333
  0
CIRCLE
  8
1
 10
11.43
 20
5.5
 40
0.03
  0
LINE
  8
1
 10
11.46
 20
5.5
 11
11.7
 21
5.5
  0
TEXT
  8
1
 10
11.18
 20
5.47
 40
0.06
  1
M1
 41
1.333
  0
TEXT
  8
1
 10
11.47
 20
5.52
 40
0.06
  1
27
 41
1.333
  0
CIRCLE
  8
1
 10
11.43
 20
5.3
 40
0.03
  0
LINE
  8
1
 10
11.46
 20
5.3
 11
11.7
 21
5.3
  0
TEXT
  8
1
 10
11.02
 20
5.27
 40
0.06
  1
MREQ
 41
1.333
  0
TEXT
  8
1
 10
11.47
 20
5.32
 40
0.06
  1
19
 41
1.333
  0
CIRCLE
  8
1
 10
11.43
 20
5.2
 40
0.03
  0
LINE
  8
1
 10
11.46
 20
5.2
 11
11.7
 21
5.2
  0
TEXT
  8
1
 10
11.02
 20
5.17
 40
0.06
  1
IORQ
 41
1.333
  0
TEXT
  8
1
 10
11.47
 20
5.22
 40
0.06
  1
20
 41
1.333
  0
CIRCLE
  8
1
 10
11.43
 20
5.1
 40
0.03
  0
LINE
  8
1
 10
11.46
 20
5.1
 11
11.7
 21
5.1
  0
TEXT
  8
1
 10
11.18
 20
5.07
 40
0.06
  1
WR
 41
1.333
  0
TEXT
  8
1
 10
11.47
 20
5.12
 40
0.06
  1
22
 41
1.333
  0
CIRCLE
  8
1
 10
11.43
 20
5.0
 40
0.03
  0
LINE
  8
1
 10
11.46
 20
5.0
 11
11.7
 21
5.0
  0
TEXT
  8
1
 10
11.18
 20
4.97
 40
0.06
  1
RD
 41
1.333
  0
TEXT
  8
1
 10
11.47
 20
5.02
 40
0.06
  1
21
 41
1.333
  0
CIRCLE
  8
1
 10
11.43
 20
4.8
 40
0.03
  0
LINE
  8
1
 10
11.46
 20
4.8
 11
11.7
 21
4.8
  0
TEXT
  8
1
 10
10.94
 20
4.77
 40
0.06
  1
REFSH
 41
1.333
  0
TEXT
  8
1
 10
11.47
 20
4.82
 40
0.06
  1
28
 41
1.333
  0
CIRCLE
  8
1
 10
11.43
 20
4.6
 40
0.03
  0
LINE
  8
1
 10
11.46
 20
4.6
 11
11.7
 21
4.6
  0
TEXT
  8
1
 10
11.02
 20
4.57
 40
0.06
  1
HALT
 41
1.333
  0
TEXT
  8
1
 10
11.47
 20
4.62
 40
0.06
  1
18
 41
1.333
  0
LINE
  8
1
 10
11.4
 20
4.4
 11
11.7
 21
4.4
  0
TEXT
  8
1
 10
11.02
 20
4.37
 40
0.06
  1
WAIT
 41
1.333
  0
TEXT
  8
1
 10
11.47
 20
4.42
 40
0.06
  1
24
 41
1.333
  0
LINE
  8
1
 10
11.4
 20
4.2
 11
11.7
 21
4.2
  0
TEXT
  8
1
 10
11.1
 20
4.17
 40
0.06
  1
INT
 41
1.333
  0
TEXT
  8
1
 10
11.47
 20
4.22
 40
0.06
  1
16
 41
1.333
  0
LINE
  8
1
 10
11.4
 20
4.1
 11
11.7
 21
4.1
  0
TEXT
  8
1
 10
11.1
 20
4.07
 40
0.06
  1
NMI
 41
1.333
  0
TEXT
  8
1
 10
11.47
 20
4.12
 40
0.06
  1
17
 41
1.333
  0
LINE
  8
1
 10
11.4
 20
3.9
 11
11.7
 21
3.9
  0
TEXT
  8
1
 10
10.94
 20
3.87
 40
0.06
  1
RESET
 41
1.333
  0
TEXT
  8
1
 10
11.47
 20
3.92
 40
0.06
  1
26
 41
1.333
  0
LINE
  8
1
 10
11.4
 20
3.7
 11
11.7
 21
3.7
  0
TEXT
  8
1
 10
10.94
 20
3.67
 40
0.06
  1
BUSRQ
 41
1.333
  0
TEXT
  8
1
 10
11.47
 20
3.72
 40
0.06
  1
25
 41
1.333
  0
CIRCLE
  8
1
 10
11.43
 20
3.6
 40
0.03
  0
LINE
  8
1
 10
11.46
 20
3.6
 11
11.7
 21
3.6
  0
TEXT
  8
1
 10
10.94
 20
3.57
 40
0.06
  1
BUSAK
 41
1.333
  0
TEXT
  8
1
 10
11.47
 20
3.62
 40
0.06
  1
23
 41
1.333
  0
LINE
  8
1
 10
11.4
 20
3.4
 11
11.7
 21
3.4
  0
LINE
  8
1
 10
11.4
 20
3.44
 11
11.36
 21
3.4
  0
LINE
  8
1
 10
11.36
 20
3.4
 11
11.4
 21
3.36
  0
TEXT
  8
1
 10
11.1
 20
3.37
 40
0.06
  1
CLK
 41
1.333
  0
TEXT
  8
1
 10
11.47
 20
3.42
 40
0.06
  1
 6
 41
1.333
  0
LINE
  8
1
 10
10.1
 20
5.6
 11
11.4
 21
5.6
  0
LINE
  8
1
 10
11.4
 20
5.6
 11
11.4
 21
3.0
  0
LINE
  8
1
 10
11.4
 20
3.0
 11
10.1
 21
3.0
  0
LINE
  8
1
 10
10.1
 20
3.0
 11
10.1
 21
5.6
  0
TEXT
  8
1
 10
10.15
 20
5.62
 40
0.06
  1
40PINSOCKET
 41
1.333
  0
TEXT
  8
1
 10
10.15
 20
2.92
 40
0.06
  1
(Z80 CPU)
 41
1.333
  0
LINE
  8
1
 10
7.4
 20
4.1
 11
7.1
 21
4.1
  0
TEXT
  8
1
 10
7.47
 20
4.07
 40
0.06
  1
RD
 41
1.333
  0
LINE
  8
1
 10
7.47
 20
4.15
 11
7.55
 21
4.15
  0
LINE
  8
1
 10
7.55
 20
4.15
 11
7.63
 21
4.15
  0
TEXT
  8
1
 10
7.11
 20
4.12
 40
0.06
  1
1
 41
1.333
  0
LINE
  8
1
 10
7.4
 20
4.0
 11
7.1
 21
4.0
  0
TEXT
  8
1
 10
7.47
 20
3.97
 40
0.06
  1
CS
 41
1.333
  0
LINE
  8
1
 10
7.47
 20
4.05
 11
7.55
 21
4.05
  0
LINE
  8
1
 10
7.55
 20
4.05
 11
7.63
 21
4.05
  0
TEXT
  8
1
 10
7.11
 20
4.02
 40
0.06
  1
2
 41
1.333
  0
LINE
  8
1
 10
7.4
 20
3.9
 11
7.1
 21
3.9
  0
TEXT
  8
1
 10
7.47
 20
3.87
 40
0.06
  1
CH1
 41
1.333
  0
TEXT
  8
1
 10
7.11
 20
3.92
 40
0.06
  1
3
 41
1.333
  0
LINE
  8
1
 10
7.4
 20
3.8
 11
7.1
 21
3.8
  0
TEXT
  8
1
 10
7.47
 20
3.77
 40
0.06
  1
CH2
 41
1.333
  0
TEXT
  8
1
 10
7.11
 20
3.82
 40
0.06
  1
4
 41
1.333
  0
LINE
  8
1
 10
7.4
 20
3.7
 11
7.1
 21
3.7
  0
TEXT
  8
1
 10
7.47
 20
3.67
 40
0.06
  1
CH3
 41
1.333
  0
TEXT
  8
1
 10
7.11
 20
3.72
 40
0.06
  1
5
 41
1.333
  0
LINE
  8
1
 10
7.4
 20
3.6
 11
7.1
 21
3.6
  0
TEXT
  8
1
 10
7.47
 20
3.57
 40
0.06
  1
CH4
 41
1.333
  0
TEXT
  8
1
 10
7.11
 20
3.62
 40
0.06
  1
6
 41
1.333
  0
LINE
  8
1
 10
7.4
 20
3.5
 11
7.1
 21
3.5
  0
TEXT
  8
1
 10
7.47
 20
3.47
 40
0.06
  1
AGND
 41
1.333
  0
TEXT
  8
1
 10
7.11
 20
3.52
 40
0.06
  1
7
 41
1.333
  0
LINE
  8
1
 10
7.4
 20
3.4
 11
7.1
 21
3.4
  0
TEXT
  8
1
 10
7.47
 20
3.37
 40
0.06
  1
VREF
 41
1.333
  0
TEXT
  8
1
 10
7.11
 20
3.42
 40
0.06
  1
8
 41
1.333
  0
LINE
  8
1
 10
7.4
 20
3.3
 11
7.1
 21
3.3
  0
TEXT
  8
1
 10
7.47
 20
3.27
 40
0.06
  1
DB7
 41
1.333
  0
TEXT
  8
1
 10
7.11
 20
3.32
 40
0.06
  1
9
 41
1.333
  0
LINE
  8
1
 10
8.6
 20
3.2
 11
8.9
 21
3.2
  0
TEXT
  8
1
 10
8.3
 20
3.17
 40
0.06
  1
DB6
 41
1.333
  0
TEXT
  8
1
 10
8.67
 20
3.22
 40
0.06
  1
11
 41
1.333
  0
LINE
  8
1
 10
8.6
 20
3.3
 11
8.9
 21
3.3
  0
TEXT
  8
1
 10
8.3
 20
3.27
 40
0.06
  1
DB5
 41
1.333
  0
TEXT
  8
1
 10
8.67
 20
3.32
 40
0.06
  1
12
 41
1.333
  0
LINE
  8
1
 10
8.6
 20
3.4
 11
8.9
 21
3.4
  0
TEXT
  8
1
 10
8.3
 20
3.37
 40
0.06
  1
DB4
 41
1.333
  0
TEXT
  8
1
 10
8.67
 20
3.42
 40
0.06
  1
13
 41
1.333
  0
LINE
  8
1
 10
8.6
 20
3.5
 11
8.9
 21
3.5
  0
TEXT
  8
1
 10
8.3
 20
3.47
 40
0.06
  1
DB3
 41
1.333
  0
TEXT
  8
1
 10
8.67
 20
3.52
 40
0.06
  1
14
 41
1.333
  0
LINE
  8
1
 10
8.6
 20
3.6
 11
8.9
 21
3.6
  0
TEXT
  8
1
 10
8.3
 20
3.57
 40
0.06
  1
DB2
 41
1.333
  0
TEXT
  8
1
 10
8.67
 20
3.62
 40
0.06
  1
15
 41
1.333
  0
LINE
  8
1
 10
8.6
 20
3.7
 11
8.9
 21
3.7
  0
TEXT
  8
1
 10
8.3
 20
3.67
 40
0.06
  1
DB1
 41
1.333
  0
TEXT
  8
1
 10
8.67
 20
3.72
 40
0.06
  1
16
 41
1.333
  0
LINE
  8
1
 10
8.6
 20
3.8
 11
8.9
 21
3.8
  0
TEXT
  8
1
 10
8.3
 20
3.77
 40
0.06
  1
DB0
 41
1.333
  0
TEXT
  8
1
 10
8.67
 20
3.82
 40
0.06
  1
17
 41
1.333
  0
LINE
  8
1
 10
8.6
 20
3.9
 11
8.9
 21
3.9
  0
TEXT
  8
1
 10
8.22
 20
3.87
 40
0.06
  1
INTR
 41
1.333
  0
LINE
  8
1
 10
8.22
 20
3.95
 11
8.3
 21
3.95
  0
LINE
  8
1
 10
8.3
 20
3.95
 11
8.38
 21
3.95
  0
LINE
  8
1
 10
8.38
 20
3.95
 11
8.46
 21
3.95
  0
LINE
  8
1
 10
8.46
 20
3.95
 11
8.54
 21
3.95
  0
TEXT
  8
1
 10
8.67
 20
3.92
 40
0.06
  1
18
 41
1.333
  0
LINE
  8
1
 10
8.6
 20
4.0
 11
8.9
 21
4.0
  0
TEXT
  8
1
 10
8.38
 20
3.97
 40
0.06
  1
WR
 41
1.333
  0
LINE
  8
1
 10
8.38
 20
4.05
 11
8.46
 21
4.05
  0
LINE
  8
1
 10
8.46
 20
4.05
 11
8.54
 21
4.05
  0
TEXT
  8
1
 10
8.67
 20
4.02
 40
0.06
  1
19
 41
1.333
  0
LINE
  8
1
 10
7.4
 20
4.2
 11
8.6
 21
4.2
  0
LINE
  8
1
 10
8.6
 20
4.2
 11
8.6
 21
3.1
  0
LINE
  8
1
 10
8.6
 20
3.1
 11
7.4
 21
3.1
  0
LINE
  8
1
 10
7.4
 20
3.1
 11
7.4
 21
4.2
  0
TEXT
  8
1
 10
7.45
 20
4.22
 40
0.06
  1
U1
 41
1.333
  0
TEXT
  8
1
 10
7.45
 20
3.02
 40
0.06
  1
ADC0844
 41
1.333
  0
LINE
  8
1
 10
1.5
 20
2.8
 11
1.7
 21
2.8
  0
LINE
  8
1
 10
1.7
 20
2.8
 11
1.6
 21
2.7
  0
LINE
  8
1
 10
1.6
 20
2.7
 11
1.5
 21
2.8
  0
CIRCLE
  8
1
 10
0.9
 20
3.5
 40
0.02
  0
CIRCLE
  8
1
 10
0.9
 20
3.5
 40
0.01
  0
LINE
  8
1
 10
1.6
 20
3.4
 11
1.6
 21
3.5
  0
LINE
  8
1
 10
1.6
 20
2.9
 11
1.6
 21
2.8
  0
LINE
  8
1
 10
1.7
 20
3.2
 11
1.8
 21
3.2
  0
LINE
  8
1
 10
1.6
 20
3.4
 11
1.6
 21
3.35
  0
LINE
  8
1
 10
1.6
 20
3.35
 11
1.63
 21
3.32
  0
LINE
  8
1
 10
1.63
 20
3.32
 11
1.57
 21
3.26
  0
LINE
  8
1
 10
1.57
 20
3.26
 11
1.63
 21
3.2
  0
LINE
  8
1
 10
1.63
 20
3.2
 11
1.57
 21
3.14
  0
LINE
  8
1
 10
1.57
 20
3.14
 11
1.63
 21
3.08
  0
LINE
  8
1
 10
1.63
 20
3.08
 11
1.57
 21
3.02
  0
LINE
  8
1
 10
1.57
 20
3.02
 11
1.6
 21
2.99
  0
LINE
  8
1
 10
1.6
 20
2.99
 11
1.6
 21
2.9
  0
LINE
  8
1
 10
1.63
 20
3.2
 11
1.68
 21
3.15
  0
LINE
  8
1
 10
1.68
 20
3.15
 11
1.68
 21
3.25
  0
LINE
  8
1
 10
1.68
 20
3.25
 11
1.63
 21
3.2
  0
LINE
  8
1
 10
1.68
 20
3.2
 11
1.7
 21
3.2
  0
LINE
  8
1
 10
1.67
 20
3.23
 11
1.67
 21
3.23
  0
LINE
  8
1
 10
1.66
 20
3.22
 11
1.67
 21
3.22
  0
LINE
  8
1
 10
1.67
 20
3.21
 11
1.65
 21
3.21
  0
LINE
  8
1
 10
1.64
 20
3.2
 11
1.67
 21
3.2
  0
LINE
  8
1
 10
1.67
 20
3.19
 11
1.65
 21
3.19
  0
LINE
  8
1
 10
1.66
 20
3.18
 11
1.67
 21
3.18
  0
LINE
  8
1
 10
1.67
 20
3.17
 11
1.67
 21
3.17
  0
TEXT
  8
1
 10
1.31
 20
3.17
 40
0.06
  1
R9
 41
1.333
  0
TEXT
  8
1
 10
1.27
 20
3.03
 40
0.06
  1
10K
 41
1.333
  0
TEXT
  8
1
 10
1.72
 20
3.317
 40
0.06
  1
(Adjust for -1.5V)
 41
1.333
  0
TEXT
  8
1
 10
3.42
 20
3.417
 40
0.06
  1
Voltage monitor input
 41
1.333
  0
LINE
  8
1
 10
4.8
 20
2.6
 11
4.8
 21
2.64
  0
CIRCLE
  8
1
 10
4.8
 20
2.67
 40
0.03
  0
TEXT
  8
1
 10
4.68
 20
2.72
 40
0.06
  1
VCC
 41
1.333
  0
CIRCLE
  8
1
 10
4.8
 20
2.6
 40
0.02
  0
CIRCLE
  8
1
 10
4.8
 20
2.6
 40
0.01
  0
LINE
  8
1
 10
5.6
 20
2.7
 11
5.8
 21
2.7
  0
LINE
  8
1
 10
5.8
 20
2.7
 11
5.7
 21
2.6
  0
LINE
  8
1
 10
5.7
 20
2.6
 11
5.6
 21
2.7
  0
LINE
  8
1
 10
5.7
 20
3.3
 11
5.7
 21
3.4
  0
LINE
  8
1
 10
5.7
 20
2.8
 11
5.7
 21
2.7
  0
LINE
  8
1
 10
5.8
 20
3.1
 11
5.9
 21
3.1
  0
LINE
  8
1
 10
5.7
 20
3.3
 11
5.7
 21
3.25
  0
LINE
  8
1
 10
5.7
 20
3.25
 11
5.73
 21
3.22
  0
LINE
  8
1
 10
5.73
 20
3.22
 11
5.67
 21
3.16
  0
LINE
  8
1
 10
5.67
 20
3.16
 11
5.73
 21
3.1
  0
LINE
  8
1
 10
5.73
 20
3.1
 11
5.67
 21
3.04
  0
LINE
  8
1
 10
5.67
 20
3.04
 11
5.73
 21
2.98
  0
LINE
  8
1
 10
5.73
 20
2.98
 11
5.67
 21
2.92
  0
LINE
  8
1
 10
5.67
 20
2.92
 11
5.7
 21
2.89
  0
LINE
  8
1
 10
5.7
 20
2.89
 11
5.7
 21
2.8
  0
LINE
  8
1
 10
5.73
 20
3.1
 11
5.78
 21
3.05
  0
LINE
  8
1
 10
5.78
 20
3.05
 11
5.78
 21
3.15
  0
LINE
  8
1
 10
5.78
 20
3.15
 11
5.73
 21
3.1
  0
LINE
  8
1
 10
5.78
 20
3.1
 11
5.8
 21
3.1
  0
LINE
  8
1
 10
5.77
 20
3.13
 11
5.77
 21
3.13
  0
LINE
  8
1
 10
5.76
 20
3.12
 11
5.77
 21
3.12
  0
LINE
  8
1
 10
5.77
 20
3.11
 11
5.75
 21
3.11
  0
LINE
  8
1
 10
5.74
 20
3.1
 11
5.77
 21
3.1
  0
LINE
  8
1
 10
5.77
 20
3.09
 11
5.75
 21
3.09
  0
LINE
  8
1
 10
5.76
 20
3.08
 11
5.77
 21
3.08
  0
LINE
  8
1
 10
5.77
 20
3.07
 11
5.77
 21
3.07
  0
TEXT
  8
1
 10
5.39
 20
3.13
 40
0.06
  1
R12
 41
1.333
  0
TEXT
  8
1
 10
5.39
 20
3.0
 40
0.06
  1
10K
 41
1.333
  0
LINE
  8
1
 10
6.5
 20
3.1
 11
6.7
 21
3.1
  0
LINE
  8
1
 10
6.7
 20
3.1
 11
6.6
 21
3.0
  0
LINE
  8
1
 10
6.6
 20
3.0
 11
6.5
 21
3.1
  0
TEXT
  8
1
 10
5.82
 20
3.217
 40
0.06
  1
MAX 3V
 41
1.333
  0
CIRCLE
  8
1
 10
6.4
 20
2.0
 40
0.02
  0
CIRCLE
  8
1
 10
6.4
 20
2.0
 40
0.01
  0
CIRCLE
  8
1
 10
6.4
 20
1.5
 40
0.02
  0
CIRCLE
  8
1
 10
6.4
 20
1.5
 40
0.01
  0
LINE
  8
1
 10
6.4
 20
1.4
 11
6.4
 21
1.5
  0
LINE
  8
1
 10
6.4
 20
1.2
 11
6.4
 21
1.1
  0
LINE
  8
1
 10
6.4
 20
1.26
 11
6.4
 21
1.1
  0
LINE
  8
1
 10
6.3
 20
1.3
 11
6.5
 21
1.3
  0
LINE
  8
1
 10
6.4
 20
1.4
 11
6.4
 21
1.3
  0
ARC
  8
1
 10
6.4
 20
1.1
 40
0.16
 50
53
 51
90
  0
ARC
  8
1
 10
6.4
 20
1.1
 40
0.16
 50
90
 51
127
  0
LINE
  8
1
 10
6.43
 20
1.345
 11
6.464
 21
1.345
  0
LINE
  8
1
 10
6.447
 20
1.362
 11
6.447
 21
1.328
  0
TEXT
  8
1
 10
6.57
 20
1.32
 40
0.06
  1
C3
 41
1.333
  0
TEXT
  8
1
 10
6.57
 20
1.23
 40
0.06
  1
1uF
 41
1.333
  0
TEXT
  8
1
 10
6.92
 20
2.017
 40
0.06
  1
Vref = 3.0V
 41
1.333
  0
LINE
  8
1
 10
5.7
 20
1.5
 11
5.6
 21
1.5
  0
LINE
  8
1
 10
6.0
 20
1.5
 11
6.1
 21
1.5
  0
LINE
  8
1
 10
5.7
 20
1.5
 11
5.73
 21
1.53
  0
LINE
  8
1
 10
5.73
 20
1.53
 11
5.79
 21
1.47
  0
LINE
  8
1
 10
5.79
 20
1.47
 11
5.85
 21
1.53
  0
LINE
  8
1
 10
5.85
 20
1.53
 11
5.91
 21
1.47
  0
LINE
  8
1
 10
5.91
 20
1.47
 11
5.97
 21
1.53
  0
LINE
  8
1
 10
5.97
 20
1.53
 11
6.0
 21
1.5
  0
TEXT
  8
1
 10
5.71
 20
1.32
 40
0.06
  1
R5
 41
1.333
  0
TEXT
  8
1
 10
5.71
 20
1.22
 40
0.06
  1
1K
 41
1.333
  0
CIRCLE
  8
1
 10
5.3
 20
1.5
 40
0.02
  0
CIRCLE
  8
1
 10
5.3
 20
1.5
 40
0.01
  0
LINE
  8
1
 10
5.6
 20
2.1
 11
5.3
 21
2.1
  0
TEXT
  8
1
 10
5.31
 20
2.12
 40
0.06
  1
  5
 41
1.333
  0
LINE
  8
1
 10
5.6
 20
1.9
 11
5.3
 21
1.9
  0
TEXT
  8
1
 10
5.31
 20
1.92
 40
0.06
  1
  6
 41
1.333
  0
LINE
  8
1
 10
6.0
 20
2.0
 11
6.3
 21
2.0
  0
TEXT
  8
1
 10
6.07
 20
2.02
 40
0.06
  1
 7
 41
1.333
  0
LINE
  8
1
 10
5.6
 20
2.2
 11
6.0
 21
2.0
  0
LINE
  8
1
 10
6.0
 20
2.0
 11
5.6
 21
1.8
  0
LINE
  8
1
 10
5.6
 20
1.8
 11
5.6
 21
2.2
  0
LINE
  8
1
 10
5.7
 20
2.2
 11
5.7
 21
2.15
  0
LINE
  8
1
 10
5.7
 20
1.85
 11
5.7
 21
1.8
  0
LINE
  8
1
 10
5.63
 20
2.095
 11
5.664
 21
2.095
  0
LINE
  8
1
 10
5.647
 20
2.112
 11
5.647
 21
2.078
  0
LINE
  8
1
 10
5.63
 20
1.895
 11
5.664
 21
1.895
  0
TEXT
  8
1
 10
5.77
 20
2.22
 40
0.06
  1
U2B
 41
1.333
  0
LINE
  8
1
 10
4.7
 20
1.6
 11
4.9
 21
1.6
  0
LINE
  8
1
 10
4.9
 20
1.6
 11
4.8
 21
1.5
  0
LINE
  8
1
 10
4.8
 20
1.5
 11
4.7
 21
1.6
  0
CIRCLE
  8
1
 10
4.8
 20
2.1
 40
0.02
  0
CIRCLE
  8
1
 10
4.8
 20
2.1
 40
0.01
  0
LINE
  8
1
 10
5.0
 20
2.3
 11
5.2
 21
2.3
  0
LINE
  8
1
 10
5.2
 20
2.3
 11
5.1
 21
2.2
  0
LINE
  8
1
 10
5.1
 20
2.2
 11
5.0
 21
2.3
  0
LINE
  8
1
 10
5.1
 20
2.5
 11
5.1
 21
2.6
  0
LINE
  8
1
 10
5.1
 20
2.4
 11
5.1
 21
2.3
  0
LINE
  8
1
 10
5.0
 20
2.5
 11
5.2
 21
2.5
  0
LINE
  8
1
 10
5.1
 20
2.46
 11
5.1
 21
2.4
  0
ARC
  8
1
 10
5.1
 20
2.3
 40
0.16
 50
53
 51
90
  0
ARC
  8
1
 10
5.1
 20
2.3
 40
0.16
 50
90
 51
127
  0
TEXT
  8
1
 10
5.27
 20
2.42
 40
0.06
  1
C4
 41
1.333
  0
TEXT
  8
1
 10
5.27
 20
2.33
 40
0.06
  1
0.1uF
 41
1.333
  0
LINE
  8
1
 10
4.8
 20
1.7
 11
4.8
 21
1.6
  0
LINE
  8
1
 10
4.8
 20
2.0
 11
4.8
 21
2.1
  0
LINE
  8
1
 10
4.7
 20
1.8
 11
4.9
 21
1.8
  0
LINE
  8
1
 10
4.9
 20
1.8
 11
4.8
 21
1.9
  0
LINE
  8
1
 10
4.8
 20
1.9
 11
4.7
 21
1.8
  0
LINE
  8
1
 10
4.8
 20
1.7
 11
4.8
 21
1.8
  0
LINE
  8
1
 10
4.8
 20
1.9
 11
4.8
 21
2.0
  0
LINE
  8
1
 10
4.7
 20
1.85
 11
4.7
 21
1.9
  0
LINE
  8
1
 10
4.7
 20
1.9
 11
4.9
 21
1.9
  0
LINE
  8
1
 10
4.9
 20
1.9
 11
4.9
 21
1.95
  0
LINE
  8
1
 10
4.8
 20
1.89
 11
4.8
 21
1.89
  0
LINE
  8
1
 10
4.79
 20
1.88
 11
4.81
 21
1.88
  0
LINE
  8
1
 10
4.82
 20
1.87
 11
4.78
 21
1.87
  0
LINE
  8
1
 10
4.77
 20
1.86
 11
4.83
 21
1.86
  0
LINE
  8
1
 10
4.84
 20
1.85
 11
4.76
 21
1.85
  0
LINE
  8
1
 10
4.75
 20
1.84
 11
4.85
 21
1.84
  0
LINE
  8
1
 10
4.86
 20
1.83
 11
4.74
 21
1.83
  0
LINE
  8
1
 10
4.73
 20
1.82
 11
4.87
 21
1.82
  0
LINE
  8
1
 10
4.88
 20
1.81
 11
4.72
 21
1.81
  0
TEXT
  8
1
 10
4.97
 20
1.92
 40
0.06
  1
D2
 41
1.333
  0
TEXT
  8
1
 10
4.97
 20
1.83
 40
0.06
  1
2V7
 41
1.333
  0
LINE
  8
1
 10
4.8
 20
2.2
 11
4.8
 21
2.1
  0
LINE
  8
1
 10
4.8
 20
2.5
 11
4.8
 21
2.6
  0
LINE
  8
1
 10
4.8
 20
2.2
 11
4.77
 21
2.23
  0
LINE
  8
1
 10
4.77
 20
2.23
 11
4.83
 21
2.29
  0
LINE
  8
1
 10
4.83
 20
2.29
 11
4.77
 21
2.35
  0
LINE
  8
1
 10
4.77
 20
2.35
 11
4.83
 21
2.41
  0
LINE
  8
1
 10
4.83
 20
2.41
 11
4.77
 21
2.47
  0
LINE
  8
1
 10
4.77
 20
2.47
 11
4.8
 21
2.5
  0
TEXT
  8
1
 10
4.51
 20
2.42
 40
0.06
  1
R4
 41
1.333
  0
TEXT
  8
1
 10
4.51
 20
2.31
 40
0.06
  1
1K8
 41
1.333
  0
LINE
  8
1
 10
3.0
 20
1.5
 11
3.2
 21
1.5
  0
LINE
  8
1
 10
3.2
 20
1.5
 11
3.1
 21
1.4
  0
LINE
  8
1
 10
3.1
 20
1.4
 11
3.0
 21
1.5
  0
CIRCLE
  8
1
 10
3.1
 20
2.0
 40
0.02
  0
CIRCLE
  8
1
 10
3.1
 20
2.0
 40
0.01
  0
LINE
  8
1
 10
2.1
 20
2.1
 11
1.8
 21
2.1
  0
TEXT
  8
1
 10
1.81
 20
2.12
 40
0.06
  1
 10
 41
1.333
  0
LINE
  8
1
 10
2.1
 20
1.9
 11
1.8
 21
1.9
  0
TEXT
  8
1
 10
1.81
 20
1.92
 40
0.06
  1
  9
 41
1.333
  0
LINE
  8
1
 10
2.5
 20
2.0
 11
2.8
 21
2.0
  0
TEXT
  8
1
 10
2.57
 20
2.02
 40
0.06
  1
 8
 41
1.333
  0
LINE
  8
1
 10
2.1
 20
2.2
 11
2.5
 21
2.0
  0
LINE
  8
1
 10
2.5
 20
2.0
 11
2.1
 21
1.8
  0
LINE
  8
1
 10
2.1
 20
1.8
 11
2.1
 21
2.2
  0
LINE
  8
1
 10
2.2
 20
2.2
 11
2.2
 21
2.15
  0
LINE
  8
1
 10
2.2
 20
1.85
 11
2.2
 21
1.8
  0
LINE
  8
1
 10
2.13
 20
2.095
 11
2.164
 21
2.095
  0
LINE
  8
1
 10
2.147
 20
2.112
 11
2.147
 21
2.078
  0
LINE
  8
1
 10
2.13
 20
1.895
 11
2.164
 21
1.895
  0
TEXT
  8
1
 10
2.25
 20
2.28
 40
0.06
  1
U2C
 41
1.333
  0
LINE
  8
1
 10
2.1
 20
1.4
 11
2.0
 21
1.4
  0
LINE
  8
1
 10
2.4
 20
1.4
 11
2.5
 21
1.4
  0
LINE
  8
1
 10
2.1
 20
1.4
 11
2.13
 21
1.43
  0
LINE
  8
1
 10
2.13
 20
1.43
 11
2.19
 21
1.37
  0
LINE
  8
1
 10
2.19
 20
1.37
 11
2.25
 21
1.43
  0
LINE
  8
1
 10
2.25
 20
1.43
 11
2.31
 21
1.37
  0
LINE
  8
1
 10
2.31
 20
1.37
 11
2.37
 21
1.43
  0
LINE
  8
1
 10
2.37
 20
1.43
 11
2.4
 21
1.4
  0
TEXT
  8
1
 10
2.17
 20
1.22
 40
0.06
  1
R11
 41
1.333
  0
TEXT
  8
1
 10
2.14
 20
1.09
 40
0.06
  1
100K
 41
1.333
  0
LINE
  8
1
 10
3.1
 20
1.6
 11
3.1
 21
1.5
  0
LINE
  8
1
 10
3.1
 20
1.9
 11
3.1
 21
2.0
  0
LINE
  8
1
 10
3.0
 20
1.7
 11
3.2
 21
1.7
  0
LINE
  8
1
 10
3.2
 20
1.7
 11
3.1
 21
1.8
  0
LINE
  8
1
 10
3.1
 20
1.8
 11
3.0
 21
1.7
  0
LINE
  8
1
 10
3.0
 20
1.8
 11
3.2
 21
1.8
  0
LINE
  8
1
 10
3.1
 20
1.6
 11
3.1
 21
1.7
  0
LINE
  8
1
 10
3.1
 20
1.8
 11
3.1
 21
1.9
  0
LINE
  8
1
 10
3.1
 20
1.79
 11
3.1
 21
1.79
  0
LINE
  8
1
 10
3.09
 20
1.78
 11
3.11
 21
1.78
  0
LINE
  8
1
 10
3.12
 20
1.77
 11
3.08
 21
1.77
  0
LINE
  8
1
 10
3.07
 20
1.76
 11
3.13
 21
1.76
  0
LINE
  8
1
 10
3.14
 20
1.75
 11
3.06
 21
1.75
  0
LINE
  8
1
 10
3.05
 20
1.74
 11
3.15
 21
1.74
  0
LINE
  8
1
 10
3.16
 20
1.73
 11
3.04
 21
1.73
  0
LINE
  8
1
 10
3.03
 20
1.72
 11
3.17
 21
1.72
  0
LINE
  8
1
 10
3.18
 20
1.71
 11
3.02
 21
1.71
  0
TEXT
  8
1
 10
3.27
 20
1.82
 40
0.06
  1
D3
 41
1.333
  0
TEXT
  8
1
 10
3.27
 20
1.73
 40
0.06
  1
IN4148
 41
1.333
  0
CIRCLE
  8
1
 10
0.9
 20
1.9
 40
0.02
  0
CIRCLE
  8
1
 10
0.9
 20
1.9
 40
0.01
  0
CIRCLE
  8
1
 10
1.8
 20
1.9
 40
0.02
  0
CIRCLE
  8
1
 10
1.8
 20
1.9
 40
0.01
  0
LINE
  8
1
 10
0.9
 20
2.4
 11
0.9
 21
2.5
  0
LINE
  8
1
 10
0.9
 20
2.1
 11
0.9
 21
2.0
  0
LINE
  8
1
 10
0.9
 20
2.4
 11
0.93
 21
2.37
  0
LINE
  8
1
 10
0.93
 20
2.37
 11
0.87
 21
2.31
  0
LINE
  8
1
 10
0.87
 20
2.31
 11
0.93
 21
2.25
  0
LINE
  8
1
 10
0.93
 20
2.25
 11
0.87
 21
2.19
  0
LINE
  8
1
 10
0.87
 20
2.19
 11
0.93
 21
2.13
  0
LINE
  8
1
 10
0.93
 20
2.13
 11
0.9
 21
2.1
  0
TEXT
  8
1
 10
1.07
 20
2.32
 40
0.06
  1
R8
 41
1.333
  0
TEXT
  8
1
 10
1.07
 20
2.23
 40
0.06
  1
2K2
 41
1.333
  0
LINE
  8
1
 10
1.4
 20
1.9
 11
1.3
 21
1.9
  0
LINE
  8
1
 10
1.7
 20
1.9
 11
1.8
 21
1.9
  0
LINE
  8
1
 10
1.4
 20
1.9
 11
1.43
 21
1.93
  0
LINE
  8
1
 10
1.43
 20
1.93
 11
1.49
 21
1.87
  0
LINE
  8
1
 10
1.49
 20
1.87
 11
1.55
 21
1.93
  0
LINE
  8
1
 10
1.55
 20
1.93
 11
1.61
 21
1.87
  0
LINE
  8
1
 10
1.61
 20
1.87
 11
1.67
 21
1.93
  0
LINE
  8
1
 10
1.67
 20
1.93
 11
1.7
 21
1.9
  0
TEXT
  8
1
 10
1.47
 20
1.73
 40
0.06
  1
R10
 41
1.333
  0
TEXT
  8
1
 10
1.42
 20
1.59
 40
0.06
  1
51K
 41
1.333
  0
LINE
  8
1
 10
0.8
 20
0.8
 11
1.0
 21
0.8
  0
LINE
  8
1
 10
1.0
 20
0.8
 11
0.9
 21
0.7
  0
LINE
  8
1
 10
0.9
 20
0.7
 11
0.8
 21
0.8
  0
TEXT
  8
1
 10
0.22
 20
1.117
 40
0.06
  1
Temp.
 41
1.333
  0
TEXT
  8
1
 10
0.22
 20
1.017
 40
0.06
  1
Sensor
 41
1.333
  0
TEXT
  8
1
 10
1.82
 20
0.717
 40
0.06
  1
Temperature
 41
1.333
  0
TEXT
  8
1
 10
1.82
 20
0.617
 40
0.06
  1
Sensor Circuit
 41
1.333
  0
LINE
  8
1
 10
0.9
 20
1.2
 11
0.9
 21
1.3
  0
LINE
  8
1
 10
0.9
 20
0.9
 11
0.9
 21
0.8
  0
LINE
  8
1
 10
1.0
 20
1.1
 11
0.8
 21
1.1
  0
LINE
  8
1
 10
0.8
 20
1.1
 11
0.9
 21
1.0
  0
LINE
  8
1
 10
0.9
 20
1.0
 11
1.0
 21
1.1
  0
LINE
  8
1
 10
0.9
 20
1.2
 11
0.9
 21
1.1
  0
LINE
  8
1
 10
0.9
 20
1.0
 11
0.9
 21
0.9
  0
LINE
  8
1
 10
1.0
 20
1.05
 11
1.0
 21
1.0
  0
LINE
  8
1
 10
1.0
 20
1.0
 11
0.8
 21
1.0
  0
LINE
  8
1
 10
0.8
 20
1.0
 11
0.8
 21
0.95
  0
LINE
  8
1
 10
0.98
 20
1.09
 11
0.82
 21
1.09
  0
LINE
  8
1
 10
0.83
 20
1.08
 11
0.97
 21
1.08
  0
LINE
  8
1
 10
0.96
 20
1.07
 11
0.84
 21
1.07
  0
LINE
  8
1
 10
0.85
 20
1.06
 11
0.95
 21
1.06
  0
LINE
  8
1
 10
0.94
 20
1.05
 11
0.86
 21
1.05
  0
LINE
  8
1
 10
0.87
 20
1.04
 11
0.93
 21
1.04
  0
LINE
  8
1
 10
0.92
 20
1.03
 11
0.88
 21
1.03
  0
LINE
  8
1
 10
0.89
 20
1.02
 11
0.91
 21
1.02
  0
LINE
  8
1
 10
0.9
 20
1.01
 11
0.9
 21
1.01
  0
TEXT
  8
1
 10
1.07
 20
1.12
 40
0.06
  1
D4
 41
1.333
  0
TEXT
  8
1
 10
1.07
 20
1.03
 40
0.06
  1
LM335Z
 41
1.333
  0
LINE
  8
1
 10
5.2
 20
0.4
 11
5.4
 21
0.4
  0
LINE
  8
1
 10
5.4
 20
0.4
 11
5.3
 21
0.3
  0
LINE
  8
1
 10
5.3
 20
0.3
 11
5.2
 21
0.4
  0
CIRCLE
  8
1
 10
5.3
 20
1.2
 40
0.02
  0
CIRCLE
  8
1
 10
5.3
 20
1.2
 40
0.01
  0
LINE
  8
1
 10
5.3
 20
1.0
 11
5.3
 21
1.1
  0
LINE
  8
1
 10
5.3
 20
0.5
 11
5.3
 21
0.4
  0
LINE
  8
1
 10
5.4
 20
0.8
 11
5.5
 21
0.8
  0
LINE
  8
1
 10
5.3
 20
1.0
 11
5.3
 21
0.95
  0
LINE
  8
1
 10
5.3
 20
0.95
 11
5.33
 21
0.92
  0
LINE
  8
1
 10
5.33
 20
0.92
 11
5.27
 21
0.86
  0
LINE
  8
1
 10
5.27
 20
0.86
 11
5.33
 21
0.8
  0
LINE
  8
1
 10
5.33
 20
0.8
 11
5.27
 21
0.74
  0
LINE
  8
1
 10
5.27
 20
0.74
 11
5.33
 21
0.68
  0
LINE
  8
1
 10
5.33
 20
0.68
 11
5.27
 21
0.62
  0
LINE
  8
1
 10
5.27
 20
0.62
 11
5.3
 21
0.59
  0
LINE
  8
1
 10
5.3
 20
0.59
 11
5.3
 21
0.5
  0
LINE
  8
1
 10
5.33
 20
0.8
 11
5.38
 21
0.75
  0
LINE
  8
1
 10
5.38
 20
0.75
 11
5.38
 21
0.85
  0
LINE
  8
1
 10
5.38
 20
0.85
 11
5.33
 21
0.8
  0
LINE
  8
1
 10
5.38
 20
0.8
 11
5.4
 21
0.8
  0
LINE
  8
1
 10
5.37
 20
0.83
 11
5.37
 21
0.83
  0
LINE
  8
1
 10
5.36
 20
0.82
 11
5.37
 21
0.82
  0
LINE
  8
1
 10
5.37
 20
0.81
 11
5.35
 21
0.81
  0
LINE
  8
1
 10
5.34
 20
0.8
 11
5.37
 21
0.8
  0
LINE
  8
1
 10
5.37
 20
0.79
 11
5.35
 21
0.79
  0
LINE
  8
1
 10
5.36
 20
0.78
 11
5.37
 21
0.78
  0
LINE
  8
1
 10
5.37
 20
0.77
 11
5.37
 21
0.77
  0
TEXT
  8
1
 10
5.04
 20
0.83
 40
0.06
  1
R6
 41
1.333
  0
TEXT
  8
1
 10
4.97
 20
0.7
 40
0.06
  1
10K
 41
1.333
  0
TEXT
  8
1
 10
5.42
 20
0.617
 40
0.06
  1
(Adjust for ADC Vref = 3.0V DC)
 41
1.333
  0
LINE
  8
1
 10
6.3
 20
1.1
 11
6.5
 21
1.1
  0
LINE
  8
1
 10
6.5
 20
1.1
 11
6.4
 21
1.0
  0
LINE
  8
1
 10
6.4
 20
1.0
 11
6.3
 21
1.1
  0
TEXT
  8
1
 10
6.82
 20
0.917
 40
0.06
  1
ADC Reference Voltage
 41
1.333
  0
LINE
  8
1
 10
0.1
 20
0.1
 11
15.1
 21
0.1
  0
LINE
  8
1
 10
15.1
 20
0.1
 11
15.1
 21
9.6
  0
LINE
  8
1
 10
15.1
 20
9.6
 11
0.1
 21
9.6
  0
LINE
  8
1
 10
0.1
 20
9.6
 11
0.1
 21
0.1
  0
ENDSEC
  0
EOF
