  0
SECTION
  2
HEADER
  9
$ACADVER
  1
AC1014
  9
$HANDSEED
  5
FFFF
  9
$MEASUREMENT
 70
     1
  0
ENDSEC
  0
SECTION
  2
TABLES
  0
TABLE
  2
VPORT
  5
8
330
0
100
AcDbSymbolTable
 70
     4
  0
VPORT
  5
2E
330
8
100
AcDbSymbolTableRecord
100
AcDbViewportTableRecord
  2
*ACTIVE
 70
     0
 10
0.0
 20
0.0
 11
1.0
 21
1.0
 12
210.0
 22
148.5
 13
0.0
 23
0.0
 14
10.0
 24
10.0
 15
10.0
 25
10.0
 16
0.0
 26
0.0
 36
1.0
 17
0.0
 27
0.0
 37
0.0
 40
341.0
 41
1.24
 42
50.0
 43
0.0
 44
0.0
 50
0.0
 51
0.0
 71
     0
 72
   100
 73
     1
 74
     3
 75
     0
 76
     0
 77
     0
 78
     0
  0
ENDTAB
  0
TABLE
  2
LTYPE
  5
5
330
0
100
AcDbSymbolTable
 70
     1
  0
LTYPE
  5
14
330
5
100
AcDbSymbolTableRecord
100
AcDbLinetypeTableRecord
  2
BYBLOCK
 70
     0
  3

 72
    65
 73
     0
 40
0.0
  0
LTYPE
  5
15
330
5
100
AcDbSymbolTableRecord
100
AcDbLinetypeTableRecord
  2
BYLAYER
 70
     0
  3

 72
    65
 73
     0
 40
0.0
  0
LTYPE
  5
16
330
5
100
AcDbSymbolTableRecord
100
AcDbLinetypeTableRecord
  2
CONTINUOUS
 70
     0
  3
Solid line
 72
    65
 73
     0
 40
0.0
  0
ENDTAB
  0
TABLE
  2
LAYER
  5
2
100
AcDbSymbolTable
 70
1
  0
LAYER
  5
50
100
AcDbSymbolTableRecord
100
AcDbLayerTableRecord
  2
0
 70
0
  6
CONTINUOUS
  0
ENDTAB
  0
TABLE
  2
STYLE
  5
3
330
0
100
AcDbSymbolTable
 70
     1
  0
STYLE
  5
11
330
3
100
AcDbSymbolTableRecord
100
AcDbTextStyleTableRecord
  2
STANDARD
 70
     0
 40
0.0
 41
1.0
 50
0.0
 71
     0
 42
2.5
  3
txt
  4

  0
ENDTAB
  0
TABLE
  2
VIEW
  5
6
330
0
100
AcDbSymbolTable
 70
     0
  0
ENDTAB
  0
TABLE
  2
UCS
  5
7
330
0
100
AcDbSymbolTable
 70
     0
  0
ENDTAB
  0
TABLE
  2
APPID
  5
9
330
0
100
AcDbSymbolTable
 70
     2
  0
APPID
  5
12
330
9
100
AcDbSymbolTableRecord
100
AcDbRegAppTableRecord
  2
ACAD
 70
     0
  0
ENDTAB
  0
TABLE
  2
DIMSTYLE
  5
A
330
0
100
AcDbSymbolTable
 70
     1
  0
DIMSTYLE
105
27
330
A
100
AcDbSymbolTableRecord
100
AcDbDimStyleTableRecord
  2
ISO-25
 70
     0
  3

  4

  5

  6

  7

 40
1.0
 41
2.5
 42
0.625
 43
3.75
 44
1.25
 45
0.0
 46
0.0
 47
0.0
 48
0.0
140
2.5
141
2.5
142
0.0
143
0.03937007874016
144
1.0
145
0.0
146
1.0
147
0.625
 71
     0
 72
     0
 73
     0
 74
     0
 75
     0
 76
     0
 77
     1
 78
     8
170
     0
171
     3
172
     1
173
     0
174
     0
175
     0
176
     0
177
     0
178
     0
270
     2
271
     2
272
     2
273
     2
274
     3
340
11
275
     0
280
     0
281
     0
282
     0
283
     0
284
     8
285
     0
286
     0
287
     3
288
     0
  0
ENDTAB
  0
TABLE
  2
BLOCK_RECORD
  5
1
330
0
100
AcDbSymbolTable
 70
     1
  0
BLOCK_RECORD
  5
1F
330
1
100
AcDbSymbolTableRecord
100
AcDbBlockTableRecord
  2
*MODEL_SPACE
  0
BLOCK_RECORD
  5
1B
330
1
100
AcDbSymbolTableRecord
100
AcDbBlockTableRecord
  2
*PAPER_SPACE
  0
ENDTAB
  0
ENDSEC
  0
SECTION
  2
BLOCKS
  0
BLOCK
  5
20
330
1F
100
AcDbEntity
  8
0
100
AcDbBlockBegin
  2
*MODEL_SPACE
 70
     0
 10
0.0
 20
0.0
 30
0.0
  3
*MODEL_SPACE
  1

  0
ENDBLK
  5
21
330
1F
100
AcDbEntity
  8
0
100
AcDbBlockEnd
  0
BLOCK
  5
1C
330
1B
100
AcDbEntity
 67
     1
  8
0
100
AcDbBlockBegin
  2
*PAPER_SPACE
  1

  0
ENDBLK
  5
1D
330
1B
100
AcDbEntity
 67
     1
  8
0
100
AcDbBlockEnd
  0
ENDSEC
  0
SECTION
  2
ENTITIES
  0
SPLINE
  5
100
100
AcDbEntity
  8
0
 62
7
100
AcDbSpline
 70
8
 71
3
 72
8
 73
4
 74
0
 40
0
 40
0
 40
0
 40
0
 40
1
 40
1
 40
1
 40
1
 10
300.000000
 20
225.000000
 30
0.0
 10
300.000000
 20
225.000000
 30
0.0
 10
600.000000
 20
225.000000
 30
0.0
 10
600.000000
 20
225.000000
 30
0.0
  0
SPLINE
  5
101
100
AcDbEntity
  8
0
 62
7
100
AcDbSpline
 70
8
 71
3
 72
8
 73
4
 74
0
 40
0
 40
0
 40
0
 40
0
 40
1
 40
1
 40
1
 40
1
 10
600.000000
 20
225.000000
 30
0.0
 10
599.770974
 20
311.243068
 30
0.0
 10
562.436947
 20
393.216118
 30
0.0
 10
497.525393
 20
450.000000
 30
0.0
  0
LWPOLYLINE
  5
102
100
AcDbEntity
  8
0
 62
7
100
AcDbPolyline
 90
2
 70
0
 10
429.459960
 20
450.000000
 30
0.0
 10
300.000000
 20
225.000000
 30
0.0
  0
LWPOLYLINE
  5
103
100
AcDbEntity
  8
0
 62
7
100
AcDbPolyline
 90
2
 70
0
 10
497.525393
 20
450.000000
 30
0.0
 10
429.459960
 20
450.000000
 30
0.0
  0
SPLINE
  5
104
100
AcDbEntity
  8
0
 62
7
100
AcDbSpline
 70
8
 71
3
 72
8
 73
4
 74
0
 40
0
 40
0
 40
0
 40
0
 40
1
 40
1
 40
1
 40
1
 10
102.912600
 20
450.000000
 30
0.0
 10
40.923798
 20
396.040604
 30
0.0
 10
3.862412
 20
319.440694
 30
0.0
 10
0.279785
 20
237.874515
 30
0.0
  0
SPLINE
  5
105
100
AcDbEntity
  8
0
 62
7
100
AcDbSpline
 70
8
 71
3
 72
8
 73
4
 74
0
 40
0
 40
0
 40
0
 40
0
 40
1
 40
1
 40
1
 40
1
 10
0.279785
 20
237.874515
 30
0.0
 10
0.100663
 20
233.585327
 30
0.0
 10
0.014705
 20
229.292834
 30
0.0
 10
0.021973
 20
225.000000
 30
0.0
  0
LWPOLYLINE
  5
106
100
AcDbEntity
  8
0
 62
7
100
AcDbPolyline
 90
3
 70
1
 10
170.093265
 20
450.000000
 30
0.0
 10
300.000000
 20
225.000000
 30
0.0
 10
429.906735
 20
450.000000
 30
0.0
  0
SPLINE
  5
107
100
AcDbEntity
  8
0
 62
7
100
AcDbSpline
 70
8
 71
3
 72
8
 73
4
 74
0
 40
0
 40
0
 40
0
 40
0
 40
1
 40
1
 40
1
 40
1
 10
0.000000
 20
225.000000
 30
0.0
 10
0.233095
 20
138.754385
 30
0.0
 10
37.573182
 20
56.780922
 30
0.0
 10
102.490725
 20
0.000000
 30
0.0
  0
LWPOLYLINE
  5
108
100
AcDbEntity
  8
0
 62
7
100
AcDbPolyline
 90
4
 70
0
 10
0.021973
 20
225.000000
 30
0.0
 10
300.000000
 20
225.000000
 30
0.0
 10
170.091795
 20
450.000000
 30
0.0
 10
102.912600
 20
450.000000
 30
0.0
  0
LWPOLYLINE
  5
109
100
AcDbEntity
  8
0
 62
7
100
AcDbPolyline
 90
4
 70
0
 10
102.490725
 20
0.000000
 30
0.0
 10
170.091795
 20
0.000000
 30
0.0
 10
300.000000
 20
225.000000
 30
0.0
 10
0.000000
 20
225.000000
 30
0.0
  0
SPLINE
  5
10a
100
AcDbEntity
  8
0
 62
7
100
AcDbSpline
 70
8
 71
3
 72
8
 73
4
 74
0
 40
0
 40
0
 40
0
 40
0
 40
1
 40
1
 40
1
 40
1
 10
497.884275
 20
0.000000
 30
0.0
 10
562.662527
 20
56.849741
 30
0.0
 10
599.861633
 20
138.813599
 30
0.0
 10
600.000000
 20
225.000000
 30
0.0
  0
LWPOLYLINE
  5
10b
100
AcDbEntity
  8
0
 62
7
100
AcDbPolyline
 90
3
 70
0
 10
300.000000
 20
225.000000
 30
0.0
 10
429.908205
 20
0.000000
 30
0.0
 10
497.884275
 20
0.000000
 30
0.0
  0
SPLINE
  5
10c
100
AcDbEntity
  8
0
 62
7
100
AcDbSpline
 70
8
 71
3
 72
8
 73
4
 74
0
 40
0
 40
0
 40
0
 40
0
 40
1
 40
1
 40
1
 40
1
 10
75.000000
 20
412.500000
 30
0.0
 10
75.000000
 20
399.102540
 30
0.0
 10
67.852540
 20
386.722777
 30
0.0
 10
56.250000
 20
380.024047
 30
0.0
  0
SPLINE
  5
10d
100
AcDbEntity
  8
0
 62
7
100
AcDbSpline
 70
8
 71
3
 72
8
 73
4
 74
0
 40
0
 40
0
 40
0
 40
0
 40
1
 40
1
 40
1
 40
1
 10
56.250000
 20
380.024047
 30
0.0
 10
44.647460
 20
373.325318
 30
0.0
 10
30.352540
 20
373.325318
 30
0.0
 10
18.750000
 20
380.024047
 30
0.0
  0
SPLINE
  5
10e
100
AcDbEntity
  8
0
 62
7
100
AcDbSpline
 70
8
 71
3
 72
8
 73
4
 74
0
 40
0
 40
0
 40
0
 40
0
 40
1
 40
1
 40
1
 40
1
 10
18.750000
 20
380.024047
 30
0.0
 10
7.147460
 20
386.722777
 30
0.0
 10
0.000000
 20
399.102540
 30
0.0
 10
0.000000
 20
412.500000
 30
0.0
  0
SPLINE
  5
10f
100
AcDbEntity
  8
0
 62
7
100
AcDbSpline
 70
8
 71
3
 72
8
 73
4
 74
0
 40
0
 40
0
 40
0
 40
0
 40
1
 40
1
 40
1
 40
1
 10
0.000000
 20
412.500000
 30
0.0
 10
-0.000000
 20
425.897460
 30
0.0
 10
7.147460
 20
438.277223
 30
0.0
 10
18.750000
 20
444.975953
 30
0.0
  0
SPLINE
  5
110
100
AcDbEntity
  8
0
 62
7
100
AcDbSpline
 70
8
 71
3
 72
8
 73
4
 74
0
 40
0
 40
0
 40
0
 40
0
 40
1
 40
1
 40
1
 40
1
 10
18.750000
 20
444.975953
 30
0.0
 10
30.352540
 20
451.674682
 30
0.0
 10
44.647460
 20
451.674682
 30
0.0
 10
56.250000
 20
444.975953
 30
0.0
  0
SPLINE
  5
111
100
AcDbEntity
  8
0
 62
7
100
AcDbSpline
 70
8
 71
3
 72
8
 73
4
 74
0
 40
0
 40
0
 40
0
 40
0
 40
1
 40
1
 40
1
 40
1
 10
56.250000
 20
444.975953
 30
0.0
 10
67.852540
 20
438.277223
 30
0.0
 10
75.000000
 20
425.897460
 30
0.0
 10
75.000000
 20
412.500000
 30
0.0
  0
LWPOLYLINE
  5
112
100
AcDbEntity
  8
0
 62
7
100
AcDbPolyline
 90
5
 70
0
 10
600.000000
 20
225.000000
 30
0.0
 10
300.000000
 20
225.000000
 30
0.0
 10
170.091795
 20
0.000000
 30
0.0
 10
429.908205
 20
0.000000
 30
0.0
 10
300.000000
 20
225.000000
 30
0.0
  0
SPLINE
  5
113
100
AcDbEntity
  8
0
 62
7
100
AcDbSpline
 70
8
 71
3
 72
8
 73
4
 74
0
 40
0
 40
0
 40
0
 40
0
 40
1
 40
1
 40
1
 40
1
 10
10.959960
 20
439.142580
 30
0.0
 10
4.791472
 20
433.060648
 30
0.0
 10
0.918835
 20
425.030698
 30
0.0
 10
-0.000000
 20
416.416995
 30
0.0
  0
LWPOLYLINE
  5
114
100
AcDbEntity
  8
0
 62
7
100
AcDbPolyline
 90
1
 70
1
 10
75.000000
 20
412.500000
 30
0.0
  0
SPLINE
  5
115
100
AcDbEntity
  8
0
 62
7
100
AcDbSpline
 70
8
 71
3
 72
8
 73
4
 74
0
 40
0
 40
0
 40
0
 40
0
 40
1
 40
1
 40
1
 40
1
 10
0.000000
 20
408.750000
 30
0.0
 10
0.855518
 20
400.117340
 30
0.0
 10
4.677531
 20
392.048299
 30
0.0
 10
10.814940
 20
385.917480
 30
0.0
  0
LWPOLYLINE
  5
116
100
AcDbEntity
  8
0
 62
7
100
AcDbPolyline
 90
2
 70
0
 10
-0.000000
 20
416.416995
 30
0.0
 10
0.000000
 20
408.750000
 30
0.0
  0
SPLINE
  5
117
100
AcDbEntity
  8
0
 62
7
100
AcDbSpline
 70
8
 71
3
 72
8
 73
4
 74
0
 40
0
 40
0
 40
0
 40
0
 40
1
 40
1
 40
1
 40
1
 10
64.040040
 20
438.975585
 30
0.0
 10
70.208528
 20
432.893653
 30
0.0
 10
74.081165
 20
424.863703
 30
0.0
 10
75.000000
 20
416.250000
 30
0.0
  0
LWPOLYLINE
  5
118
100
AcDbEntity
  8
0
 62
7
100
AcDbPolyline
 90
3
 70
0
 10
10.814940
 20
385.917480
 30
0.0
 10
37.500000
 20
412.602540
 30
0.0
 10
10.959960
 20
439.142580
 30
0.0
  0
SPLINE
  5
119
100
AcDbEntity
  8
0
 62
7
100
AcDbSpline
 70
8
 71
3
 72
8
 73
4
 74
0
 40
0
 40
0
 40
0
 40
0
 40
1
 40
1
 40
1
 40
1
 10
75.000000
 20
408.583005
 30
0.0
 10
74.144482
 20
399.950345
 30
0.0
 10
70.322469
 20
391.881304
 30
0.0
 10
64.185060
 20
385.750485
 30
0.0
  0
LWPOLYLINE
  5
11a
100
AcDbEntity
  8
0
 62
7
100
AcDbPolyline
 90
2
 70
0
 10
75.000000
 20
416.250000
 30
0.0
 10
75.000000
 20
408.583005
 30
0.0
  0
LWPOLYLINE
  5
11b
100
AcDbEntity
  8
0
 62
7
100
AcDbPolyline
 90
3
 70
0
 10
64.185060
 20
385.750485
 30
0.0
 10
37.500000
 20
412.435545
 30
0.0
 10
64.040040
 20
438.975585
 30
0.0
  0
LWPOLYLINE
  5
11c
100
AcDbEntity
  8
0
 62
7
100
AcDbPolyline
 90
8
 70
1
 10
75.000000
 20
74.999985
 30
0.0
 10
0.000000
 20
74.999985
 30
0.0
 10
0.000000
 20
-0.000015
 30
0.0
 10
75.000000
 20
-0.000015
 30
0.0
 10
75.000000
 20
74.999985
 30
0.0
 10
37.500000
 20
74.999985
 30
0.0
 10
37.500000
 20
37.499985
 30
0.0
 10
75.000000
 20
37.499985
 30
0.0
  0
LWPOLYLINE
  5
11d
100
AcDbEntity
  8
0
 62
7
100
AcDbPolyline
 90
4
 70
1
 10
37.500000
 20
37.499985
 30
0.0
 10
0.000000
 20
37.499985
 30
0.0
 10
0.000000
 20
-0.000015
 30
0.0
 10
37.500000
 20
-0.000015
 30
0.0
  0
LWPOLYLINE
  5
11e
100
AcDbEntity
  8
0
 62
7
100
AcDbPolyline
 90
4
 70
1
 10
525.000000
 20
74.999985
 30
0.0
 10
600.000000
 20
74.999985
 30
0.0
 10
600.000000
 20
-0.000015
 30
0.0
 10
525.000000
 20
-0.000015
 30
0.0
  0
SPLINE
  5
11f
100
AcDbEntity
  8
0
 62
7
100
AcDbSpline
 70
8
 71
3
 72
8
 73
4
 74
0
 40
0
 40
0
 40
0
 40
0
 40
1
 40
1
 40
1
 40
1
 10
600.000000
 20
412.500000
 30
0.0
 10
600.000000
 20
399.102540
 30
0.0
 10
592.852540
 20
386.722777
 30
0.0
 10
581.250000
 20
380.024047
 30
0.0
  0
SPLINE
  5
120
100
AcDbEntity
  8
0
 62
7
100
AcDbSpline
 70
8
 71
3
 72
8
 73
4
 74
0
 40
0
 40
0
 40
0
 40
0
 40
1
 40
1
 40
1
 40
1
 10
581.250000
 20
380.024047
 30
0.0
 10
569.647460
 20
373.325318
 30
0.0
 10
555.352540
 20
373.325318
 30
0.0
 10
543.750000
 20
380.024047
 30
0.0
  0
SPLINE
  5
121
100
AcDbEntity
  8
0
 62
7
100
AcDbSpline
 70
8
 71
3
 72
8
 73
4
 74
0
 40
0
 40
0
 40
0
 40
0
 40
1
 40
1
 40
1
 40
1
 10
543.750000
 20
380.024047
 30
0.0
 10
532.147460
 20
386.722777
 30
0.0
 10
525.000000
 20
399.102540
 30
0.0
 10
525.000000
 20
412.500000
 30
0.0
  0
SPLINE
  5
122
100
AcDbEntity
  8
0
 62
7
100
AcDbSpline
 70
8
 71
3
 72
8
 73
4
 74
0
 40
0
 40
0
 40
0
 40
0
 40
1
 40
1
 40
1
 40
1
 10
525.000000
 20
412.500000
 30
0.0
 10
525.000000
 20
425.897460
 30
0.0
 10
532.147460
 20
438.277223
 30
0.0
 10
543.750000
 20
444.975953
 30
0.0
  0
SPLINE
  5
123
100
AcDbEntity
  8
0
 62
7
100
AcDbSpline
 70
8
 71
3
 72
8
 73
4
 74
0
 40
0
 40
0
 40
0
 40
0
 40
1
 40
1
 40
1
 40
1
 10
543.750000
 20
444.975953
 30
0.0
 10
555.352540
 20
451.674682
 30
0.0
 10
569.647460
 20
451.674682
 30
0.0
 10
581.250000
 20
444.975953
 30
0.0
  0
SPLINE
  5
124
100
AcDbEntity
  8
0
 62
7
100
AcDbSpline
 70
8
 71
3
 72
8
 73
4
 74
0
 40
0
 40
0
 40
0
 40
0
 40
1
 40
1
 40
1
 40
1
 10
581.250000
 20
444.975953
 30
0.0
 10
592.852540
 20
438.277223
 30
0.0
 10
600.000000
 20
425.897460
 30
0.0
 10
600.000000
 20
412.500000
 30
0.0
  0
LWPOLYLINE
  5
125
100
AcDbEntity
  8
0
 62
7
100
AcDbPolyline
 90
6
 70
1
 10
562.500000
 20
37.500000
 30
0.0
 10
525.000000
 20
75.000000
 30
0.0
 10
600.000000
 20
75.000000
 30
0.0
 10
562.500000
 20
37.500000
 30
0.0
 10
525.000000
 20
0.000000
 30
0.0
 10
600.000000
 20
0.000000
 30
0.0
  0
SPLINE
  5
126
100
AcDbEntity
  8
0
 62
7
100
AcDbSpline
 70
8
 71
3
 72
8
 73
4
 74
0
 40
0
 40
0
 40
0
 40
0
 40
1
 40
1
 40
1
 40
1
 10
562.500000
 20
450.000000
 30
0.0
 10
552.554382
 20
450.000000
 30
0.0
 10
543.016110
 20
446.049118
 30
0.0
 10
535.983496
 20
439.016504
 30
0.0
  0
SPLINE
  5
127
100
AcDbEntity
  8
0
 62
7
100
AcDbSpline
 70
8
 71
3
 72
8
 73
4
 74
0
 40
0
 40
0
 40
0
 40
0
 40
1
 40
1
 40
1
 40
1
 10
535.983496
 20
439.016504
 30
0.0
 10
528.950882
 20
431.983890
 30
0.0
 10
525.000000
 20
422.445618
 30
0.0
 10
525.000000
 20
412.500000
 30
0.0
  0
LWPOLYLINE
  5
128
100
AcDbEntity
  8
0
 62
7
100
AcDbPolyline
 90
1
 70
1
 10
600.000000
 20
412.500000
 30
0.0
  0
SPLINE
  5
129
100
AcDbEntity
  8
0
 62
7
100
AcDbSpline
 70
8
 71
3
 72
8
 73
4
 74
0
 40
0
 40
0
 40
0
 40
0
 40
1
 40
1
 40
1
 40
1
 10
562.500000
 20
375.000000
 30
0.0
 10
572.445618
 20
375.000000
 30
0.0
 10
581.983890
 20
378.950882
 30
0.0
 10
589.016504
 20
385.983496
 30
0.0
  0
SPLINE
  5
12a
100
AcDbEntity
  8
0
 62
7
100
AcDbSpline
 70
8
 71
3
 72
8
 73
4
 74
0
 40
0
 40
0
 40
0
 40
0
 40
1
 40
1
 40
1
 40
1
 10
589.016504
 20
385.983496
 30
0.0
 10
596.049118
 20
393.016110
 30
0.0
 10
600.000000
 20
402.554382
 30
0.0
 10
600.000000
 20
412.500000
 30
0.0
  0
LWPOLYLINE
  5
12b
100
AcDbEntity
  8
0
 62
7
100
AcDbPolyline
 90
3
 70
0
 10
525.000000
 20
412.500000
 30
0.0
 10
562.500000
 20
412.500000
 30
0.0
 10
562.500000
 20
450.000000
 30
0.0
  0
SPLINE
  5
12c
100
AcDbEntity
  8
0
 62
7
100
AcDbSpline
 70
8
 71
3
 72
8
 73
4
 74
0
 40
0
 40
0
 40
0
 40
0
 40
1
 40
1
 40
1
 40
1
 10
452.814291
 20
107.135284
 30
0.0
 10
424.577946
 20
107.160570
 30
0.0
 10
396.341180
 20
107.143411
 30
0.0
 10
368.104661
 20
107.148266
 30
0.0
  0
SPLINE
  5
12d
100
AcDbEntity
  8
0
 62
7
100
AcDbSpline
 70
8
 71
3
 72
8
 73
4
 74
0
 40
0
 40
0
 40
0
 40
0
 40
1
 40
1
 40
1
 40
1
 10
368.104661
 20
107.148266
 30
0.0
 10
294.003685
 20
107.148592
 30
0.0
 10
219.902683
 20
107.147549
 30
0.0
 10
145.801722
 20
107.153546
 30
0.0
  0
SPLINE
  5
12e
100
AcDbEntity
  8
0
 62
7
100
AcDbSpline
 70
8
 71
3
 72
8
 73
4
 74
0
 40
0
 40
0
 40
0
 40
0
 40
1
 40
1
 40
1
 40
1
 10
145.801722
 20
107.153546
 30
0.0
 10
141.957757
 20
107.131445
 30
0.0
 10
138.103088
 20
107.183631
 30
0.0
 10
134.282672
 20
107.613412
 30
0.0
  0
SPLINE
  5
12f
100
AcDbEntity
  8
0
 62
7
100
AcDbSpline
 70
8
 71
3
 72
8
 73
4
 74
0
 40
0
 40
0
 40
0
 40
0
 40
1
 40
1
 40
1
 40
1
 10
134.282672
 20
107.613412
 30
0.0
 10
125.307831
 20
108.555547
 30
0.0
 10
116.470434
 20
111.022801
 30
0.0
 10
108.620579
 20
115.202044
 30
0.0
  0
SPLINE
  5
130
100
AcDbEntity
  8
0
 62
7
100
AcDbSpline
 70
8
 71
3
 72
8
 73
4
 74
0
 40
0
 40
0
 40
0
 40
0
 40
1
 40
1
 40
1
 40
1
 10
108.620579
 20
115.202044
 30
0.0
 10
101.662476
 20
118.888438
 30
0.0
 10
95.517432
 20
123.844488
 30
0.0
 10
90.462727
 20
129.601072
 30
0.0
  0
SPLINE
  5
131
100
AcDbEntity
  8
0
 62
7
100
AcDbSpline
 70
8
 71
3
 72
8
 73
4
 74
0
 40
0
 40
0
 40
0
 40
0
 40
1
 40
1
 40
1
 40
1
 10
90.462727
 20
129.601072
 30
0.0
 10
83.952450
 20
136.959301
 30
0.0
 10
79.095540
 20
145.467261
 30
0.0
 10
75.402055
 20
154.318028
 30
0.0
  0
SPLINE
  5
132
100
AcDbEntity
  8
0
 62
7
100
AcDbSpline
 70
8
 71
3
 72
8
 73
4
 74
0
 40
0
 40
0
 40
0
 40
0
 40
1
 40
1
 40
1
 40
1
 10
75.402055
 20
154.318028
 30
0.0
 10
70.306264
 20
166.503533
 30
0.0
 10
67.320452
 20
179.363397
 30
0.0
 10
65.493301
 20
192.297062
 30
0.0
  0
SPLINE
  5
133
100
AcDbEntity
  8
0
 62
7
100
AcDbSpline
 70
8
 71
3
 72
8
 73
4
 74
0
 40
0
 40
0
 40
0
 40
0
 40
1
 40
1
 40
1
 40
1
 10
65.493301
 20
192.297062
 30
0.0
 10
63.397673
 20
207.231717
 30
0.0
 10
62.930824
 20
222.330576
 30
0.0
 10
63.425949
 20
237.373493
 30
0.0
  0
SPLINE
  5
134
100
AcDbEntity
  8
0
 62
7
100
AcDbSpline
 70
8
 71
3
 72
8
 73
4
 74
0
 40
0
 40
0
 40
0
 40
0
 40
1
 40
1
 40
1
 40
1
 10
63.425949
 20
237.373493
 30
0.0
 10
63.939743
 20
252.272306
 30
0.0
 10
65.580517
 20
267.192587
 30
0.0
 10
69.345784
 20
281.705972
 30
0.0
  0
SPLINE
  5
135
100
AcDbEntity
  8
0
 62
7
100
AcDbSpline
 70
8
 71
3
 72
8
 73
4
 74
0
 40
0
 40
0
 40
0
 40
0
 40
1
 40
1
 40
1
 40
1
 10
69.345784
 20
281.705972
 30
0.0
 10
72.144256
 20
292.436565
 30
0.0
 10
76.195751
 20
302.953351
 30
0.0
 10
82.153372
 20
312.540754
 30
0.0
  0
SPLINE
  5
136
100
AcDbEntity
  8
0
 62
7
100
AcDbSpline
 70
8
 71
3
 72
8
 73
4
 74
0
 40
0
 40
0
 40
0
 40
0
 40
1
 40
1
 40
1
 40
1
 10
82.153372
 20
312.540754
 30
0.0
 10
86.401584
 20
319.359866
 30
0.0
 10
91.638368
 20
325.691044
 30
0.0
 10
97.950784
 20
330.980682
 30
0.0
  0
SPLINE
  5
137
100
AcDbEntity
  8
0
 62
7
100
AcDbSpline
 70
8
 71
3
 72
8
 73
4
 74
0
 40
0
 40
0
 40
0
 40
0
 40
1
 40
1
 40
1
 40
1
 10
97.950784
 20
330.980682
 30
0.0
 10
104.600551
 20
336.533794
 30
0.0
 10
112.516686
 20
340.790928
 30
0.0
 10
121.049748
 20
343.304580
 30
0.0
  0
SPLINE
  5
138
100
AcDbEntity
  8
0
 62
7
100
AcDbSpline
 70
8
 71
3
 72
8
 73
4
 74
0
 40
0
 40
0
 40
0
 40
0
 40
1
 40
1
 40
1
 40
1
 10
121.049748
 20
343.304580
 30
0.0
 10
128.221245
 20
345.442387
 30
0.0
 10
135.768802
 20
346.405692
 30
0.0
 10
143.292629
 20
346.409140
 30
0.0
  0
SPLINE
  5
139
100
AcDbEntity
  8
0
 62
7
100
AcDbSpline
 70
8
 71
3
 72
8
 73
4
 74
0
 40
0
 40
0
 40
0
 40
0
 40
1
 40
1
 40
1
 40
1
 10
143.292629
 20
346.409140
 30
0.0
 10
146.664882
 20
346.425300
 30
0.0
 10
150.037146
 20
346.389970
 30
0.0
 10
153.409411
 20
346.405715
 30
0.0
  0
SPLINE
  5
13a
100
AcDbEntity
  8
0
 62
7
100
AcDbSpline
 70
8
 71
3
 72
8
 73
4
 74
0
 40
0
 40
0
 40
0
 40
0
 40
1
 40
1
 40
1
 40
1
 10
153.409411
 20
346.405715
 30
0.0
 10
251.944250
 20
346.395578
 30
0.0
 10
350.479077
 20
346.415117
 30
0.0
 10
449.013904
 20
346.393441
 30
0.0
  0
SPLINE
  5
13b
100
AcDbEntity
  8
0
 62
7
100
AcDbSpline
 70
8
 71
3
 72
8
 73
4
 74
0
 40
0
 40
0
 40
0
 40
0
 40
1
 40
1
 40
1
 40
1
 10
449.013904
 20
346.393441
 30
0.0
 10
451.161546
 20
346.387901
 30
0.0
 10
453.309436
 20
346.399486
 30
0.0
 10
455.456929
 20
346.381649
 30
0.0
  0
SPLINE
  5
13c
100
AcDbEntity
  8
0
 62
7
100
AcDbSpline
 70
8
 71
3
 72
8
 73
4
 74
0
 40
0
 40
0
 40
0
 40
0
 40
1
 40
1
 40
1
 40
1
 10
455.456929
 20
346.381649
 30
0.0
 10
465.444304
 20
346.154338
 30
0.0
 10
475.457138
 20
344.177503
 30
0.0
 10
484.450456
 20
340.082852
 30
0.0
  0
SPLINE
  5
13d
100
AcDbEntity
  8
0
 62
7
100
AcDbSpline
 70
8
 71
3
 72
8
 73
4
 74
0
 40
0
 40
0
 40
0
 40
0
 40
1
 40
1
 40
1
 40
1
 10
484.450456
 20
340.082852
 30
0.0
 10
492.599254
 20
336.386087
 30
0.0
 10
499.798272
 20
330.976310
 30
0.0
 10
505.586600
 20
324.513962
 30
0.0
  0
SPLINE
  5
13e
100
AcDbEntity
  8
0
 62
7
100
AcDbSpline
 70
8
 71
3
 72
8
 73
4
 74
0
 40
0
 40
0
 40
0
 40
0
 40
1
 40
1
 40
1
 40
1
 10
505.586600
 20
324.513962
 30
0.0
 10
508.515917
 20
321.274333
 30
0.0
 10
511.126351
 20
317.791525
 30
0.0
 10
513.442446
 20
314.151538
 30
0.0
  0
SPLINE
  5
13f
100
AcDbEntity
  8
0
 62
7
100
AcDbSpline
 70
8
 71
3
 72
8
 73
4
 74
0
 40
0
 40
0
 40
0
 40
0
 40
1
 40
1
 40
1
 40
1
 10
513.442446
 20
314.151538
 30
0.0
 10
513.452015
 20
323.514507
 30
0.0
 10
513.407219
 20
332.877636
 30
0.0
 10
513.472542
 20
342.240478
 30
0.0
  0
SPLINE
  5
140
100
AcDbEntity
  8
0
 62
7
100
AcDbSpline
 70
8
 71
3
 72
8
 73
4
 74
0
 40
0
 40
0
 40
0
 40
0
 40
1
 40
1
 40
1
 40
1
 10
513.472542
 20
342.240478
 30
0.0
 10
513.695609
 20
344.345463
 30
0.0
 10
515.656874
 20
346.189760
 30
0.0
 10
517.941758
 20
346.363513
 30
0.0
  0
SPLINE
  5
141
100
AcDbEntity
  8
0
 62
7
100
AcDbSpline
 70
8
 71
3
 72
8
 73
4
 74
0
 40
0
 40
0
 40
0
 40
0
 40
1
 40
1
 40
1
 40
1
 10
517.941758
 20
346.363513
 30
0.0
 10
519.493556
 20
346.477593
 30
0.0
 10
521.051799
 20
346.348181
 30
0.0
 10
522.604341
 20
346.399831
 30
0.0
  0
SPLINE
  5
142
100
AcDbEntity
  8
0
 62
7
100
AcDbSpline
 70
8
 71
3
 72
8
 73
4
 74
0
 40
0
 40
0
 40
0
 40
0
 40
1
 40
1
 40
1
 40
1
 10
522.604341
 20
346.399831
 30
0.0
 10
524.852038
 20
346.396130
 30
0.0
 10
527.103280
 20
346.457894
 30
0.0
 10
529.348003
 20
346.327149
 30
0.0
  0
SPLINE
  5
143
100
AcDbEntity
  8
0
 62
7
100
AcDbSpline
 70
8
 71
3
 72
8
 73
4
 74
0
 40
0
 40
0
 40
0
 40
0
 40
1
 40
1
 40
1
 40
1
 10
529.348003
 20
346.327149
 30
0.0
 10
531.491653
 20
345.979919
 30
0.0
 10
533.285061
 20
344.205707
 30
0.0
 10
533.450118
 20
342.183463
 30
0.0
  0
SPLINE
  5
144
100
AcDbEntity
  8
0
 62
7
100
AcDbSpline
 70
8
 71
3
 72
8
 73
4
 74
0
 40
0
 40
0
 40
0
 40
0
 40
1
 40
1
 40
1
 40
1
 10
533.450118
 20
342.183463
 30
0.0
 10
533.552107
 20
340.668797
 30
0.0
 10
533.436731
 20
339.151015
 30
0.0
 10
533.486188
 20
337.635204
 30
0.0
  0
SPLINE
  5
145
100
AcDbEntity
  8
0
 62
7
100
AcDbSpline
 70
8
 71
3
 72
8
 73
4
 74
0
 40
0
 40
0
 40
0
 40
0
 40
1
 40
1
 40
1
 40
1
 10
533.486188
 20
337.635204
 30
0.0
 10
533.484205
 20
262.291585
 30
0.0
 10
533.490403
 20
186.947963
 30
0.0
 10
533.479842
 20
111.604346
 30
0.0
  0
SPLINE
  5
146
100
AcDbEntity
  8
0
 62
7
100
AcDbSpline
 70
8
 71
3
 72
8
 73
4
 74
0
 40
0
 40
0
 40
0
 40
0
 40
1
 40
1
 40
1
 40
1
 10
533.479842
 20
111.604346
 30
0.0
 10
533.400983
 20
109.432386
 30
0.0
 10
531.460863
 20
107.442278
 30
0.0
 10
529.121738
 20
107.201858
 30
0.0
  0
SPLINE
  5
147
100
AcDbEntity
  8
0
 62
7
100
AcDbSpline
 70
8
 71
3
 72
8
 73
4
 74
0
 40
0
 40
0
 40
0
 40
0
 40
1
 40
1
 40
1
 40
1
 10
529.121738
 20
107.201858
 30
0.0
 10
527.760828
 20
107.061605
 30
0.0
 10
526.391143
 20
107.201334
 30
0.0
 10
525.026465
 20
107.156770
 30
0.0
  0
SPLINE
  5
148
100
AcDbEntity
  8
0
 62
7
100
AcDbSpline
 70
8
 71
3
 72
8
 73
4
 74
0
 40
0
 40
0
 40
0
 40
0
 40
1
 40
1
 40
1
 40
1
 10
525.026465
 20
107.156770
 30
0.0
 10
522.553247
 20
107.151065
 30
0.0
 10
520.076980
 20
107.097643
 30
0.0
 10
517.606265
 20
107.221052
 30
0.0
  0
SPLINE
  5
149
100
AcDbEntity
  8
0
 62
7
100
AcDbSpline
 70
8
 71
3
 72
8
 73
4
 74
0
 40
0
 40
0
 40
0
 40
0
 40
1
 40
1
 40
1
 40
1
 10
517.606265
 20
107.221052
 30
0.0
 10
515.415983
 20
107.562565
 30
0.0
 10
513.581869
 20
109.397529
 30
0.0
 10
513.470956
 20
111.467961
 30
0.0
  0
SPLINE
  5
14a
100
AcDbEntity
  8
0
 62
7
100
AcDbSpline
 70
8
 71
3
 72
8
 73
4
 74
0
 40
0
 40
0
 40
0
 40
0
 40
1
 40
1
 40
1
 40
1
 10
513.470956
 20
111.467961
 30
0.0
 10
513.377098
 20
112.934663
 30
0.0
 10
513.490292
 20
114.404018
 30
0.0
 10
513.440389
 20
115.871651
 30
0.0
  0
SPLINE
  5
14b
100
AcDbEntity
  8
0
 62
7
100
AcDbSpline
 70
8
 71
3
 72
8
 73
4
 74
0
 40
0
 40
0
 40
0
 40
0
 40
1
 40
1
 40
1
 40
1
 10
513.440389
 20
115.871651
 30
0.0
 10
513.440389
 20
123.725819
 30
0.0
 10
513.440389
 20
131.579987
 30
0.0
 10
513.440389
 20
139.434155
 30
0.0
  0
SPLINE
  5
14c
100
AcDbEntity
  8
0
 62
7
100
AcDbSpline
 70
8
 71
3
 72
8
 73
4
 74
0
 40
0
 40
0
 40
0
 40
0
 40
1
 40
1
 40
1
 40
1
 10
513.440389
 20
139.434155
 30
0.0
 10
508.324012
 20
131.380156
 30
0.0
 10
501.698453
 20
124.052237
 30
0.0
 10
493.514948
 20
118.537196
 30
0.0
  0
SPLINE
  5
14d
100
AcDbEntity
  8
0
 62
7
100
AcDbSpline
 70
8
 71
3
 72
8
 73
4
 74
0
 40
0
 40
0
 40
0
 40
0
 40
1
 40
1
 40
1
 40
1
 10
493.514948
 20
118.537196
 30
0.0
 10
485.763941
 20
113.315992
 30
0.0
 10
476.694268
 20
109.829193
 30
0.0
 10
467.269716
 20
108.277179
 30
0.0
  0
SPLINE
  5
14e
100
AcDbEntity
  8
0
 62
7
100
AcDbSpline
 70
8
 71
3
 72
8
 73
4
 74
0
 40
0
 40
0
 40
0
 40
0
 40
1
 40
1
 40
1
 40
1
 10
467.269716
 20
108.277179
 30
0.0
 10
462.504847
 20
107.470057
 30
0.0
 10
457.655739
 20
107.123511
 30
0.0
 10
452.814291
 20
107.135284
 30
0.0
  0
LWPOLYLINE
  5
14f
100
AcDbEntity
  8
0
 62
7
100
AcDbPolyline
 90
3
 70
0
 10
600.000000
 20
412.500000
 30
0.0
 10
562.500000
 20
412.500000
 30
0.0
 10
562.500000
 20
375.000000
 30
0.0
  0
SPLINE
  5
150
100
AcDbEntity
  8
0
 62
7
100
AcDbSpline
 70
8
 71
3
 72
8
 73
4
 74
0
 40
0
 40
0
 40
0
 40
0
 40
1
 40
1
 40
1
 40
1
 10
141.191135
 20
125.735913
 30
0.0
 10
245.404120
 20
125.735913
 30
0.0
 10
349.617105
 20
125.735913
 30
0.0
 10
453.830090
 20
125.735913
 30
0.0
  0
SPLINE
  5
151
100
AcDbEntity
  8
0
 62
7
100
AcDbSpline
 70
8
 71
3
 72
8
 73
4
 74
0
 40
0
 40
0
 40
0
 40
0
 40
1
 40
1
 40
1
 40
1
 10
453.830090
 20
125.735913
 30
0.0
 10
461.866685
 20
126.318777
 30
0.0
 10
469.886299
 20
128.163173
 30
0.0
 10
476.997483
 20
131.749011
 30
0.0
  0
SPLINE
  5
152
100
AcDbEntity
  8
0
 62
7
100
AcDbSpline
 70
8
 71
3
 72
8
 73
4
 74
0
 40
0
 40
0
 40
0
 40
0
 40
1
 40
1
 40
1
 40
1
 10
476.997483
 20
131.749011
 30
0.0
 10
483.732939
 20
135.144404
 30
0.0
 10
489.535497
 20
140.059816
 30
0.0
 10
493.964081
 20
145.850400
 30
0.0
  0
SPLINE
  5
153
100
AcDbEntity
  8
0
 62
7
100
AcDbSpline
 70
8
 71
3
 72
8
 73
4
 74
0
 40
0
 40
0
 40
0
 40
0
 40
1
 40
1
 40
1
 40
1
 10
493.964081
 20
145.850400
 30
0.0
 10
499.235573
 20
152.672079
 30
0.0
 10
502.812819
 20
160.507064
 30
0.0
 10
505.308423
 20
168.543959
 30
0.0
  0
SPLINE
  5
154
100
AcDbEntity
  8
0
 62
7
100
AcDbSpline
 70
8
 71
3
 72
8
 73
4
 74
0
 40
0
 40
0
 40
0
 40
0
 40
1
 40
1
 40
1
 40
1
 10
505.308423
 20
168.543959
 30
0.0
 10
506.618810
 20
172.745423
 30
0.0
 10
507.718971
 20
177.001527
 30
0.0
 10
508.672396
 20
181.283787
 30
0.0
  0
SPLINE
  5
155
100
AcDbEntity
  8
0
 62
7
100
AcDbSpline
 70
8
 71
3
 72
8
 73
4
 74
0
 40
0
 40
0
 40
0
 40
0
 40
1
 40
1
 40
1
 40
1
 10
508.672396
 20
181.283787
 30
0.0
 10
508.006766
 20
178.631537
 30
0.0
 10
505.887633
 20
176.302813
 30
0.0
 10
503.120125
 20
175.352408
 30
0.0
  0
SPLINE
  5
156
100
AcDbEntity
  8
0
 62
7
100
AcDbSpline
 70
8
 71
3
 72
8
 73
4
 74
0
 40
0
 40
0
 40
0
 40
0
 40
1
 40
1
 40
1
 40
1
 10
503.120125
 20
175.352408
 30
0.0
 10
501.797343
 20
174.859706
 30
0.0
 10
500.358293
 20
174.675559
 30
0.0
 10
498.938332
 20
174.725235
 30
0.0
  0
SPLINE
  5
157
100
AcDbEntity
  8
0
 62
7
100
AcDbSpline
 70
8
 71
3
 72
8
 73
4
 74
0
 40
0
 40
0
 40
0
 40
0
 40
1
 40
1
 40
1
 40
1
 10
498.938332
 20
174.725235
 30
0.0
 10
446.060936
 20
174.866393
 30
0.0
 10
393.183416
 20
174.973311
 30
0.0
 10
340.306070
 20
175.118639
 30
0.0
  0
SPLINE
  5
158
100
AcDbEntity
  8
0
 62
7
100
AcDbSpline
 70
8
 71
3
 72
8
 73
4
 74
0
 40
0
 40
0
 40
0
 40
0
 40
1
 40
1
 40
1
 40
1
 10
340.306070
 20
175.118639
 30
0.0
 10
339.394219
 20
175.106258
 30
0.0
 10
338.471683
 20
175.128612
 30
0.0
 10
337.585217
 20
175.347510
 30
0.0
  0
SPLINE
  5
159
100
AcDbEntity
  8
0
 62
7
100
AcDbSpline
 70
8
 71
3
 72
8
 73
4
 74
0
 40
0
 40
0
 40
0
 40
0
 40
1
 40
1
 40
1
 40
1
 10
337.585217
 20
175.347510
 30
0.0
 10
335.251100
 20
175.866878
 30
0.0
 10
333.095574
 20
177.208099
 30
0.0
 10
331.854106
 20
179.132438
 30
0.0
  0
SPLINE
  5
15a
100
AcDbEntity
  8
0
 62
7
100
AcDbSpline
 70
8
 71
3
 72
8
 73
4
 74
0
 40
0
 40
0
 40
0
 40
0
 40
1
 40
1
 40
1
 40
1
 10
331.854106
 20
179.132438
 30
0.0
 10
330.774075
 20
180.780410
 30
0.0
 10
330.366591
 20
182.750618
 30
0.0
 10
330.473860
 20
184.661904
 30
0.0
  0
SPLINE
  5
15b
100
AcDbEntity
  8
0
 62
7
100
AcDbSpline
 70
8
 71
3
 72
8
 73
4
 74
0
 40
0
 40
0
 40
0
 40
0
 40
1
 40
1
 40
1
 40
1
 10
330.473860
 20
184.661904
 30
0.0
 10
330.496915
 20
203.757012
 30
0.0
 10
330.478173
 20
222.852137
 30
0.0
 10
330.484470
 20
241.947253
 30
0.0
  0
SPLINE
  5
15c
100
AcDbEntity
  8
0
 62
7
100
AcDbSpline
 70
8
 71
3
 72
8
 73
4
 74
0
 40
0
 40
0
 40
0
 40
0
 40
1
 40
1
 40
1
 40
1
 10
330.484470
 20
241.947253
 30
0.0
 10
330.486206
 20
249.697499
 30
0.0
 10
330.480504
 20
257.447963
 30
0.0
 10
330.503782
 20
265.198064
 30
0.0
  0
SPLINE
  5
15d
100
AcDbEntity
  8
0
 62
7
100
AcDbSpline
 70
8
 71
3
 72
8
 73
4
 74
0
 40
0
 40
0
 40
0
 40
0
 40
1
 40
1
 40
1
 40
1
 10
330.503782
 20
265.198064
 30
0.0
 10
330.687432
 20
268.094489
 30
0.0
 10
332.554691
 20
270.827177
 30
0.0
 10
335.259330
 20
272.271978
 30
0.0
  0
SPLINE
  5
15e
100
AcDbEntity
  8
0
 62
7
100
AcDbSpline
 70
8
 71
3
 72
8
 73
4
 74
0
 40
0
 40
0
 40
0
 40
0
 40
1
 40
1
 40
1
 40
1
 10
335.259330
 20
272.271978
 30
0.0
 10
338.760593
 20
274.404818
 30
0.0
 10
342.384918
 20
276.451697
 30
0.0
 10
346.380755
 20
277.686375
 30
0.0
  0
SPLINE
  5
15f
100
AcDbEntity
  8
0
 62
7
100
AcDbSpline
 70
8
 71
3
 72
8
 73
4
 74
0
 40
0
 40
0
 40
0
 40
0
 40
1
 40
1
 40
1
 40
1
 10
346.380755
 20
277.686375
 30
0.0
 10
348.636683
 20
278.386414
 30
0.0
 10
351.022613
 20
278.738593
 30
0.0
 10
353.402767
 20
278.665487
 30
0.0
  0
SPLINE
  5
160
100
AcDbEntity
  8
0
 62
7
100
AcDbSpline
 70
8
 71
3
 72
8
 73
4
 74
0
 40
0
 40
0
 40
0
 40
0
 40
1
 40
1
 40
1
 40
1
 10
353.402767
 20
278.665487
 30
0.0
 10
355.961191
 20
278.604854
 30
0.0
 10
358.510070
 20
278.190158
 30
0.0
 10
360.940028
 20
277.446399
 30
0.0
  0
SPLINE
  5
161
100
AcDbEntity
  8
0
 62
7
100
AcDbSpline
 70
8
 71
3
 72
8
 73
4
 74
0
 40
0
 40
0
 40
0
 40
0
 40
1
 40
1
 40
1
 40
1
 10
360.940028
 20
277.446399
 30
0.0
 10
363.895599
 20
276.529064
 30
0.0
 10
366.648158
 20
275.048220
 30
0.0
 10
368.954833
 20
273.102704
 30
0.0
  0
SPLINE
  5
162
100
AcDbEntity
  8
0
 62
7
100
AcDbSpline
 70
8
 71
3
 72
8
 73
4
 74
0
 40
0
 40
0
 40
0
 40
0
 40
1
 40
1
 40
1
 40
1
 10
368.954833
 20
273.102704
 30
0.0
 10
371.460899
 20
271.018509
 30
0.0
 10
373.462300
 20
268.448690
 30
0.0
 10
374.986903
 20
265.674142
 30
0.0
  0
SPLINE
  5
163
100
AcDbEntity
  8
0
 62
7
100
AcDbSpline
 70
8
 71
3
 72
8
 73
4
 74
0
 40
0
 40
0
 40
0
 40
0
 40
1
 40
1
 40
1
 40
1
 10
374.986903
 20
265.674142
 30
0.0
 10
377.615831
 20
261.188039
 30
0.0
 10
379.632603
 20
256.416768
 30
0.0
 10
381.324444
 20
251.564986
 30
0.0
  0
SPLINE
  5
164
100
AcDbEntity
  8
0
 62
7
100
AcDbSpline
 70
8
 71
3
 72
8
 73
4
 74
0
 40
0
 40
0
 40
0
 40
0
 40
1
 40
1
 40
1
 40
1
 10
381.324444
 20
251.564986
 30
0.0
 10
382.647225
 20
247.868842
 30
0.0
 10
383.802199
 20
244.115889
 30
0.0
 10
385.381638
 20
240.503476
 30
0.0
  0
SPLINE
  5
165
100
AcDbEntity
  8
0
 62
7
100
AcDbSpline
 70
8
 71
3
 72
8
 73
4
 74
0
 40
0
 40
0
 40
0
 40
0
 40
1
 40
1
 40
1
 40
1
 10
385.381638
 20
240.503476
 30
0.0
 10
387.460511
 20
235.828134
 30
0.0
 10
390.315555
 20
231.406054
 30
0.0
 10
394.127594
 20
227.766232
 30
0.0
  0
SPLINE
  5
166
100
AcDbEntity
  8
0
 62
7
100
AcDbSpline
 70
8
 71
3
 72
8
 73
4
 74
0
 40
0
 40
0
 40
0
 40
0
 40
1
 40
1
 40
1
 40
1
 10
394.127594
 20
227.766232
 30
0.0
 10
397.974514
 20
224.069918
 30
0.0
 10
402.746498
 20
221.148263
 30
0.0
 10
408.051210
 20
219.607372
 30
0.0
  0
SPLINE
  5
167
100
AcDbEntity
  8
0
 62
7
100
AcDbSpline
 70
8
 71
3
 72
8
 73
4
 74
0
 40
0
 40
0
 40
0
 40
0
 40
1
 40
1
 40
1
 40
1
 10
408.051210
 20
219.607372
 30
0.0
 10
412.908275
 20
218.211800
 30
0.0
 10
418.083778
 20
217.838086
 30
0.0
 10
423.129079
 20
218.367789
 30
0.0
  0
SPLINE
  5
168
100
AcDbEntity
  8
0
 62
7
100
AcDbSpline
 70
8
 71
3
 72
8
 73
4
 74
0
 40
0
 40
0
 40
0
 40
0
 40
1
 40
1
 40
1
 40
1
 10
423.129079
 20
218.367789
 30
0.0
 10
427.899626
 20
218.923179
 30
0.0
 10
432.480300
 20
220.604863
 30
0.0
 10
436.483327
 20
223.060794
 30
0.0
  0
SPLINE
  5
169
100
AcDbEntity
  8
0
 62
7
100
AcDbSpline
 70
8
 71
3
 72
8
 73
4
 74
0
 40
0
 40
0
 40
0
 40
0
 40
1
 40
1
 40
1
 40
1
 10
436.483327
 20
223.060794
 30
0.0
 10
439.956626
 20
225.172324
 30
0.0
 10
443.096862
 20
227.745278
 30
0.0
 10
445.863156
 20
230.615016
 30
0.0
  0
SPLINE
  5
16a
100
AcDbEntity
  8
0
 62
7
100
AcDbSpline
 70
8
 71
3
 72
8
 73
4
 74
0
 40
0
 40
0
 40
0
 40
0
 40
1
 40
1
 40
1
 40
1
 10
445.863156
 20
230.615016
 30
0.0
 10
449.913880
 20
234.836510
 30
0.0
 10
453.101045
 20
239.739760
 30
0.0
 10
455.388903
 20
244.971198
 30
0.0
  0
SPLINE
  5
16b
100
AcDbEntity
  8
0
 62
7
100
AcDbSpline
 70
8
 71
3
 72
8
 73
4
 74
0
 40
0
 40
0
 40
0
 40
0
 40
1
 40
1
 40
1
 40
1
 10
455.388903
 20
244.971198
 30
0.0
 10
457.496037
 20
249.710152
 30
0.0
 10
459.280248
 20
254.572899
 30
0.0
 10
461.573882
 20
259.240874
 30
0.0
  0
SPLINE
  5
16c
100
AcDbEntity
  8
0
 62
7
100
AcDbSpline
 70
8
 71
3
 72
8
 73
4
 74
0
 40
0
 40
0
 40
0
 40
0
 40
1
 40
1
 40
1
 40
1
 10
461.573882
 20
259.240874
 30
0.0
 10
463.020072
 20
262.193126
 30
0.0
 10
464.730753
 20
265.037809
 30
0.0
 10
466.735799
 20
267.695916
 30
0.0
  0
SPLINE
  5
16d
100
AcDbEntity
  8
0
 62
7
100
AcDbSpline
 70
8
 71
3
 72
8
 73
4
 74
0
 40
0
 40
0
 40
0
 40
0
 40
1
 40
1
 40
1
 40
1
 10
466.735799
 20
267.695916
 30
0.0
 10
467.530415
 20
268.748253
 30
0.0
 10
468.381232
 20
269.768063
 30
0.0
 10
469.357712
 20
270.681964
 30
0.0
  0
SPLINE
  5
16e
100
AcDbEntity
  8
0
 62
7
100
AcDbSpline
 70
8
 71
3
 72
8
 73
4
 74
0
 40
0
 40
0
 40
0
 40
0
 40
1
 40
1
 40
1
 40
1
 10
469.357712
 20
270.681964
 30
0.0
 10
472.630554
 20
273.794351
 30
0.0
 10
476.925193
 20
275.963284
 30
0.0
 10
481.516503
 20
276.838345
 30
0.0
  0
SPLINE
  5
16f
100
AcDbEntity
  8
0
 62
7
100
AcDbSpline
 70
8
 71
3
 72
8
 73
4
 74
0
 40
0
 40
0
 40
0
 40
0
 40
1
 40
1
 40
1
 40
1
 10
481.516503
 20
276.838345
 30
0.0
 10
484.869518
 20
277.511388
 30
0.0
 10
488.353824
 20
277.723281
 30
0.0
 10
491.756569
 20
277.262206
 30
0.0
  0
SPLINE
  5
170
100
AcDbEntity
  8
0
 62
7
100
AcDbSpline
 70
8
 71
3
 72
8
 73
4
 74
0
 40
0
 40
0
 40
0
 40
0
 40
1
 40
1
 40
1
 40
1
 10
491.756569
 20
277.262206
 30
0.0
 10
495.067490
 20
276.752329
 30
0.0
 10
498.182663
 20
275.493076
 30
0.0
 10
501.109401
 20
274.006415
 30
0.0
  0
SPLINE
  5
171
100
AcDbEntity
  8
0
 62
7
100
AcDbSpline
 70
8
 71
3
 72
8
 73
4
 74
0
 40
0
 40
0
 40
0
 40
0
 40
1
 40
1
 40
1
 40
1
 10
501.109401
 20
274.006415
 30
0.0
 10
503.090227
 20
272.993413
 30
0.0
 10
504.921118
 20
271.736168
 30
0.0
 10
506.571583
 20
270.303588
 30
0.0
  0
SPLINE
  5
172
100
AcDbEntity
  8
0
 62
7
100
AcDbSpline
 70
8
 71
3
 72
8
 73
4
 74
0
 40
0
 40
0
 40
0
 40
0
 40
1
 40
1
 40
1
 40
1
 10
506.571583
 20
270.303588
 30
0.0
 10
507.290117
 20
269.740578
 30
0.0
 10
507.842552
 20
269.021607
 30
0.0
 10
508.301899
 20
268.266258
 30
0.0
  0
SPLINE
  5
173
100
AcDbEntity
  8
0
 62
7
100
AcDbSpline
 70
8
 71
3
 72
8
 73
4
 74
0
 40
0
 40
0
 40
0
 40
0
 40
1
 40
1
 40
1
 40
1
 10
508.301899
 20
268.266258
 30
0.0
 10
509.095151
 20
267.095188
 30
0.0
 10
509.675179
 20
265.760605
 30
0.0
 10
509.716827
 20
264.363608
 30
0.0
  0
SPLINE
  5
174
100
AcDbEntity
  8
0
 62
7
100
AcDbSpline
 70
8
 71
3
 72
8
 73
4
 74
0
 40
0
 40
0
 40
0
 40
0
 40
1
 40
1
 40
1
 40
1
 10
509.716827
 20
264.363608
 30
0.0
 10
509.785274
 20
263.129280
 30
0.0
 10
509.669452
 20
261.894409
 30
0.0
 10
509.696747
 20
260.659591
 30
0.0
  0
SPLINE
  5
175
100
AcDbEntity
  8
0
 62
7
100
AcDbSpline
 70
8
 71
3
 72
8
 73
4
 74
0
 40
0
 40
0
 40
0
 40
0
 40
1
 40
1
 40
1
 40
1
 10
509.696747
 20
260.659591
 30
0.0
 10
509.418000
 20
234.609025
 30
0.0
 10
509.181993
 20
208.557930
 30
0.0
 10
508.873175
 20
182.507728
 30
0.0
  0
SPLINE
  5
176
100
AcDbEntity
  8
0
 62
7
100
AcDbSpline
 70
8
 71
3
 72
8
 73
4
 74
0
 40
0
 40
0
 40
0
 40
0
 40
1
 40
1
 40
1
 40
1
 10
508.873175
 20
182.507728
 30
0.0
 10
508.852450
 20
182.237279
 30
0.0
 10
508.816033
 20
181.967879
 30
0.0
 10
508.764791
 20
181.700949
 30
0.0
  0
SPLINE
  5
177
100
AcDbEntity
  8
0
 62
7
100
AcDbSpline
 70
8
 71
3
 72
8
 73
4
 74
0
 40
0
 40
0
 40
0
 40
0
 40
1
 40
1
 40
1
 40
1
 10
508.764791
 20
181.700949
 30
0.0
 10
509.624432
 20
185.598975
 30
0.0
 10
510.374871
 20
189.517929
 30
0.0
 10
510.978425
 20
193.456909
 30
0.0
  0
SPLINE
  5
178
100
AcDbEntity
  8
0
 62
7
100
AcDbSpline
 70
8
 71
3
 72
8
 73
4
 74
0
 40
0
 40
0
 40
0
 40
0
 40
1
 40
1
 40
1
 40
1
 10
510.978425
 20
193.456909
 30
0.0
 10
513.073164
 20
206.978784
 30
0.0
 10
513.714797
 20
220.672035
 30
0.0
 10
513.354043
 20
234.322486
 30
0.0
  0
SPLINE
  5
179
100
AcDbEntity
  8
0
 62
7
100
AcDbSpline
 70
8
 71
3
 72
8
 73
4
 74
0
 40
0
 40
0
 40
0
 40
0
 40
1
 40
1
 40
1
 40
1
 10
513.354043
 20
234.322486
 30
0.0
 10
513.050332
 20
246.985303
 30
0.0
 10
512.030691
 20
259.666551
 30
0.0
 10
509.531046
 20
272.129701
 30
0.0
  0
SPLINE
  5
17a
100
AcDbEntity
  8
0
 62
7
100
AcDbSpline
 70
8
 71
3
 72
8
 73
4
 74
0
 40
0
 40
0
 40
0
 40
0
 40
1
 40
1
 40
1
 40
1
 10
509.531046
 20
272.129701
 30
0.0
 10
507.975381
 20
279.811491
 30
0.0
 10
505.817599
 20
287.419113
 30
0.0
 10
502.586877
 20
294.649464
 30
0.0
  0
SPLINE
  5
17b
100
AcDbEntity
  8
0
 62
7
100
AcDbSpline
 70
8
 71
3
 72
8
 73
4
 74
0
 40
0
 40
0
 40
0
 40
0
 40
1
 40
1
 40
1
 40
1
 10
502.586877
 20
294.649464
 30
0.0
 10
500.307621
 20
299.710452
 30
0.0
 10
497.446206
 20
304.586696
 30
0.0
 10
493.699762
 20
308.849673
 30
0.0
  0
SPLINE
  5
17c
100
AcDbEntity
  8
0
 62
7
100
AcDbSpline
 70
8
 71
3
 72
8
 73
4
 74
0
 40
0
 40
0
 40
0
 40
0
 40
1
 40
1
 40
1
 40
1
 10
493.699762
 20
308.849673
 30
0.0
 10
490.190368
 20
312.801532
 30
0.0
 10
485.874979
 20
316.086258
 30
0.0
 10
481.234137
 20
318.828729
 30
0.0
  0
SPLINE
  5
17d
100
AcDbEntity
  8
0
 62
7
100
AcDbSpline
 70
8
 71
3
 72
8
 73
4
 74
0
 40
0
 40
0
 40
0
 40
0
 40
1
 40
1
 40
1
 40
1
 10
481.234137
 20
318.828729
 30
0.0
 10
475.055579
 20
322.454811
 30
0.0
 10
468.157992
 20
324.973337
 30
0.0
 10
461.047452
 20
326.514494
 30
0.0
  0
SPLINE
  5
17e
100
AcDbEntity
  8
0
 62
7
100
AcDbSpline
 70
8
 71
3
 72
8
 73
4
 74
0
 40
0
 40
0
 40
0
 40
0
 40
1
 40
1
 40
1
 40
1
 10
461.047452
 20
326.514494
 30
0.0
 10
458.527305
 20
327.070711
 30
0.0
 10
455.978748
 20
327.536113
 30
0.0
 10
453.403739
 20
327.806821
 30
0.0
  0
SPLINE
  5
17f
100
AcDbEntity
  8
0
 62
7
100
AcDbSpline
 70
8
 71
3
 72
8
 73
4
 74
0
 40
0
 40
0
 40
0
 40
0
 40
1
 40
1
 40
1
 40
1
 10
453.403739
 20
327.806821
 30
0.0
 10
443.272975
 20
327.827513
 30
0.0
 10
433.142162
 20
327.810122
 30
0.0
 10
423.011373
 20
327.816181
 30
0.0
  0
SPLINE
  5
180
100
AcDbEntity
  8
0
 62
7
100
AcDbSpline
 70
8
 71
3
 72
8
 73
4
 74
0
 40
0
 40
0
 40
0
 40
0
 40
1
 40
1
 40
1
 40
1
 10
423.011373
 20
327.816181
 30
0.0
 10
329.436841
 20
327.811995
 30
0.0
 10
235.862259
 20
327.828876
 30
0.0
 10
142.287754
 20
327.802152
 30
0.0
  0
SPLINE
  5
181
100
AcDbEntity
  8
0
 62
7
100
AcDbSpline
 70
8
 71
3
 72
8
 73
4
 74
0
 40
0
 40
0
 40
0
 40
0
 40
1
 40
1
 40
1
 40
1
 10
142.287754
 20
327.802152
 30
0.0
 10
140.501347
 20
327.743202
 30
0.0
 10
138.720778
 20
327.597968
 30
0.0
 10
136.951394
 20
327.357595
 30
0.0
  0
SPLINE
  5
182
100
AcDbEntity
  8
0
 62
7
100
AcDbSpline
 70
8
 71
3
 72
8
 73
4
 74
0
 40
0
 40
0
 40
0
 40
0
 40
1
 40
1
 40
1
 40
1
 10
136.951394
 20
327.357595
 30
0.0
 10
147.152143
 20
327.350552
 30
0.0
 10
157.353396
 20
327.396021
 30
0.0
 10
167.553783
 20
327.323254
 30
0.0
  0
SPLINE
  5
183
100
AcDbEntity
  8
0
 62
7
100
AcDbSpline
 70
8
 71
3
 72
8
 73
4
 74
0
 40
0
 40
0
 40
0
 40
0
 40
1
 40
1
 40
1
 40
1
 10
167.553783
 20
327.323254
 30
0.0
 10
170.337249
 20
327.073674
 30
0.0
 10
173.024262
 20
325.650765
 30
0.0
 10
174.508654
 20
323.429662
 30
0.0
  0
SPLINE
  5
184
100
AcDbEntity
  8
0
 62
7
100
AcDbSpline
 70
8
 71
3
 72
8
 73
4
 74
0
 40
0
 40
0
 40
0
 40
0
 40
1
 40
1
 40
1
 40
1
 10
174.508654
 20
323.429662
 30
0.0
 10
175.207528
 20
322.352419
 30
0.0
 10
175.851392
 20
321.190247
 30
0.0
 10
175.968677
 20
319.917171
 30
0.0
  0
SPLINE
  5
185
100
AcDbEntity
  8
0
 62
7
100
AcDbSpline
 70
8
 71
3
 72
8
 73
4
 74
0
 40
0
 40
0
 40
0
 40
0
 40
1
 40
1
 40
1
 40
1
 10
175.968677
 20
319.917171
 30
0.0
 10
176.151607
 20
318.430376
 30
0.0
 10
175.763211
 20
316.931042
 30
0.0
 10
175.117637
 20
315.575507
 30
0.0
  0
SPLINE
  5
186
100
AcDbEntity
  8
0
 62
7
100
AcDbSpline
 70
8
 71
3
 72
8
 73
4
 74
0
 40
0
 40
0
 40
0
 40
0
 40
1
 40
1
 40
1
 40
1
 10
175.117637
 20
315.575507
 30
0.0
 10
174.397245
 20
313.773225
 30
0.0
 10
173.560013
 20
312.010455
 30
0.0
 10
172.586582
 20
310.312907
 30
0.0
  0
SPLINE
  5
187
100
AcDbEntity
  8
0
 62
7
100
AcDbSpline
 70
8
 71
3
 72
8
 73
4
 74
0
 40
0
 40
0
 40
0
 40
0
 40
1
 40
1
 40
1
 40
1
 10
172.586582
 20
310.312907
 30
0.0
 10
171.960940
 20
309.167873
 30
0.0
 10
171.305747
 20
308.000598
 30
0.0
 10
171.076358
 20
306.724903
 30
0.0
  0
SPLINE
  5
188
100
AcDbEntity
  8
0
 62
7
100
AcDbSpline
 70
8
 71
3
 72
8
 73
4
 74
0
 40
0
 40
0
 40
0
 40
0
 40
1
 40
1
 40
1
 40
1
 10
171.076358
 20
306.724903
 30
0.0
 10
170.979303
 20
306.084662
 30
0.0
 10
171.100852
 20
305.437033
 30
0.0
 10
171.344420
 20
304.836492
 30
0.0
  0
SPLINE
  5
189
100
AcDbEntity
  8
0
 62
7
100
AcDbSpline
 70
8
 71
3
 72
8
 73
4
 74
0
 40
0
 40
0
 40
0
 40
0
 40
1
 40
1
 40
1
 40
1
 10
171.344420
 20
304.836492
 30
0.0
 10
172.294474
 20
301.998139
 30
0.0
 10
173.972902
 20
299.409096
 30
0.0
 10
174.784450
 20
296.524185
 30
0.0
  0
SPLINE
  5
18a
100
AcDbEntity
  8
0
 62
7
100
AcDbSpline
 70
8
 71
3
 72
8
 73
4
 74
0
 40
0
 40
0
 40
0
 40
0
 40
1
 40
1
 40
1
 40
1
 10
174.784450
 20
296.524185
 30
0.0
 10
175.637771
 20
293.648080
 30
0.0
 10
175.873902
 20
290.588027
 30
0.0
 10
175.243202
 20
287.651901
 30
0.0
  0
SPLINE
  5
18b
100
AcDbEntity
  8
0
 62
7
100
AcDbSpline
 70
8
 71
3
 72
8
 73
4
 74
0
 40
0
 40
0
 40
0
 40
0
 40
1
 40
1
 40
1
 40
1
 10
175.243202
 20
287.651901
 30
0.0
 10
174.496407
 20
283.861577
 30
0.0
 10
172.952518
 20
280.245634
 30
0.0
 10
171.069615
 20
276.824609
 30
0.0
  0
SPLINE
  5
18c
100
AcDbEntity
  8
0
 62
7
100
AcDbSpline
 70
8
 71
3
 72
8
 73
4
 74
0
 40
0
 40
0
 40
0
 40
0
 40
1
 40
1
 40
1
 40
1
 10
171.069615
 20
276.824609
 30
0.0
 10
170.214783
 20
275.271044
 30
0.0
 10
169.330375
 20
273.725020
 30
0.0
 10
168.692511
 20
272.080797
 30
0.0
  0
SPLINE
  5
18d
100
AcDbEntity
  8
0
 62
7
100
AcDbSpline
 70
8
 71
3
 72
8
 73
4
 74
0
 40
0
 40
0
 40
0
 40
0
 40
1
 40
1
 40
1
 40
1
 10
168.692511
 20
272.080797
 30
0.0
 10
168.193928
 20
270.808604
 30
0.0
 10
167.797921
 20
269.488999
 30
0.0
 10
167.702066
 20
268.134177
 30
0.0
  0
SPLINE
  5
18e
100
AcDbEntity
  8
0
 62
7
100
AcDbSpline
 70
8
 71
3
 72
8
 73
4
 74
0
 40
0
 40
0
 40
0
 40
0
 40
1
 40
1
 40
1
 40
1
 10
167.702066
 20
268.134177
 30
0.0
 10
167.670138
 20
267.502595
 30
0.0
 10
167.736535
 20
266.818618
 30
0.0
 10
168.162630
 20
266.294386
 30
0.0
  0
SPLINE
  5
18f
100
AcDbEntity
  8
0
 62
7
100
AcDbSpline
 70
8
 71
3
 72
8
 73
4
 74
0
 40
0
 40
0
 40
0
 40
0
 40
1
 40
1
 40
1
 40
1
 10
168.162630
 20
266.294386
 30
0.0
 10
168.589233
 20
265.720515
 30
0.0
 10
169.101582
 20
265.208971
 30
0.0
 10
169.560358
 20
264.656912
 30
0.0
  0
SPLINE
  5
190
100
AcDbEntity
  8
0
 62
7
100
AcDbSpline
 70
8
 71
3
 72
8
 73
4
 74
0
 40
0
 40
0
 40
0
 40
0
 40
1
 40
1
 40
1
 40
1
 10
169.560358
 20
264.656912
 30
0.0
 10
171.490883
 20
262.511919
 30
0.0
 10
173.564996
 20
260.452113
 30
0.0
 10
175.129338
 20
258.050065
 30
0.0
  0
SPLINE
  5
191
100
AcDbEntity
  8
0
 62
7
100
AcDbSpline
 70
8
 71
3
 72
8
 73
4
 74
0
 40
0
 40
0
 40
0
 40
0
 40
1
 40
1
 40
1
 40
1
 10
175.129338
 20
258.050065
 30
0.0
 10
176.007945
 20
256.804814
 30
0.0
 10
176.853134
 20
255.477971
 30
0.0
 10
177.114824
 20
253.986988
 30
0.0
  0
SPLINE
  5
192
100
AcDbEntity
  8
0
 62
7
100
AcDbSpline
 70
8
 71
3
 72
8
 73
4
 74
0
 40
0
 40
0
 40
0
 40
0
 40
1
 40
1
 40
1
 40
1
 10
177.114824
 20
253.986988
 30
0.0
 10
177.655460
 20
251.165941
 30
0.0
 10
176.477332
 20
248.119743
 30
0.0
 10
174.124448
 20
246.264525
 30
0.0
  0
SPLINE
  5
193
100
AcDbEntity
  8
0
 62
7
100
AcDbSpline
 70
8
 71
3
 72
8
 73
4
 74
0
 40
0
 40
0
 40
0
 40
0
 40
1
 40
1
 40
1
 40
1
 10
174.124448
 20
246.264525
 30
0.0
 10
172.384860
 20
244.821666
 30
0.0
 10
170.075534
 20
243.940921
 30
0.0
 10
167.728802
 20
243.974536
 30
0.0
  0
SPLINE
  5
194
100
AcDbEntity
  8
0
 62
7
100
AcDbSpline
 70
8
 71
3
 72
8
 73
4
 74
0
 40
0
 40
0
 40
0
 40
0
 40
1
 40
1
 40
1
 40
1
 10
167.728802
 20
243.974536
 30
0.0
 10
166.493019
 20
243.971274
 30
0.0
 10
165.257372
 20
244.001845
 30
0.0
 10
164.021568
 20
243.986314
 30
0.0
  0
SPLINE
  5
195
100
AcDbEntity
  8
0
 62
7
100
AcDbSpline
 70
8
 71
3
 72
8
 73
4
 74
0
 40
0
 40
0
 40
0
 40
0
 40
1
 40
1
 40
1
 40
1
 10
164.021568
 20
243.986314
 30
0.0
 10
162.756983
 20
243.986084
 30
0.0
 10
161.492400
 20
243.984590
 30
0.0
 10
160.227817
 20
243.984889
 30
0.0
  0
SPLINE
  5
196
100
AcDbEntity
  8
0
 62
7
100
AcDbSpline
 70
8
 71
3
 72
8
 73
4
 74
0
 40
0
 40
0
 40
0
 40
0
 40
1
 40
1
 40
1
 40
1
 10
160.227817
 20
243.984889
 30
0.0
 10
161.092368
 20
241.489037
 30
0.0
 10
161.557193
 20
238.891963
 30
0.0
 10
162.395408
 20
236.391110
 30
0.0
  0
SPLINE
  5
197
100
AcDbEntity
  8
0
 62
7
100
AcDbSpline
 70
8
 71
3
 72
8
 73
4
 74
0
 40
0
 40
0
 40
0
 40
0
 40
1
 40
1
 40
1
 40
1
 10
162.395408
 20
236.391110
 30
0.0
 10
163.024202
 20
233.958291
 30
0.0
 10
163.142994
 20
231.448580
 30
0.0
 10
163.523799
 20
228.979227
 30
0.0
  0
SPLINE
  5
198
100
AcDbEntity
  8
0
 62
7
100
AcDbSpline
 70
8
 71
3
 72
8
 73
4
 74
0
 40
0
 40
0
 40
0
 40
0
 40
1
 40
1
 40
1
 40
1
 10
163.523799
 20
228.979227
 30
0.0
 10
163.903166
 20
225.927749
 30
0.0
 10
164.071874
 20
222.858610
 30
0.0
 10
164.281833
 20
219.794321
 30
0.0
  0
SPLINE
  5
199
100
AcDbEntity
  8
0
 62
7
100
AcDbSpline
 70
8
 71
3
 72
8
 73
4
 74
0
 40
0
 40
0
 40
0
 40
0
 40
1
 40
1
 40
1
 40
1
 10
164.281833
 20
219.794321
 30
0.0
 10
164.546519
 20
215.508319
 30
0.0
 10
164.586761
 20
211.214003
 30
0.0
 10
164.601579
 20
206.922040
 30
0.0
  0
SPLINE
  5
19a
100
AcDbEntity
  8
0
 62
7
100
AcDbSpline
 70
8
 71
3
 72
8
 73
4
 74
0
 40
0
 40
0
 40
0
 40
0
 40
1
 40
1
 40
1
 40
1
 10
164.601579
 20
206.922040
 30
0.0
 10
164.611919
 20
201.412143
 30
0.0
 10
164.464003
 20
195.902487
 30
0.0
 10
164.176500
 20
190.399137
 30
0.0
  0
SPLINE
  5
19b
100
AcDbEntity
  8
0
 62
7
100
AcDbSpline
 70
8
 71
3
 72
8
 73
4
 74
0
 40
0
 40
0
 40
0
 40
0
 40
1
 40
1
 40
1
 40
1
 10
164.176500
 20
190.399137
 30
0.0
 10
163.633537
 20
179.683249
 30
0.0
 10
162.648930
 20
168.991567
 30
0.0
 10
162.047719
 20
158.278912
 30
0.0
  0
SPLINE
  5
19c
100
AcDbEntity
  8
0
 62
7
100
AcDbSpline
 70
8
 71
3
 72
8
 73
4
 74
0
 40
0
 40
0
 40
0
 40
0
 40
1
 40
1
 40
1
 40
1
 10
162.047719
 20
158.278912
 30
0.0
 10
161.785840
 20
153.627245
 30
0.0
 10
161.582222
 20
148.972128
 30
0.0
 10
161.524705
 20
144.314279
 30
0.0
  0
SPLINE
  5
19d
100
AcDbEntity
  8
0
 62
7
100
AcDbSpline
 70
8
 71
3
 72
8
 73
4
 74
0
 40
0
 40
0
 40
0
 40
0
 40
1
 40
1
 40
1
 40
1
 10
161.524705
 20
144.314279
 30
0.0
 10
161.565952
 20
143.201368
 30
0.0
 10
161.950701
 20
142.127784
 30
0.0
 10
162.294837
 20
141.069038
 30
0.0
  0
SPLINE
  5
19e
100
AcDbEntity
  8
0
 62
7
100
AcDbSpline
 70
8
 71
3
 72
8
 73
4
 74
0
 40
0
 40
0
 40
0
 40
0
 40
1
 40
1
 40
1
 40
1
 10
162.294837
 20
141.069038
 30
0.0
 10
162.755436
 20
139.670324
 30
0.0
 10
163.277161
 20
138.288776
 30
0.0
 10
163.700172
 20
136.879640
 30
0.0
  0
SPLINE
  5
19f
100
AcDbEntity
  8
0
 62
7
100
AcDbSpline
 70
8
 71
3
 72
8
 73
4
 74
0
 40
0
 40
0
 40
0
 40
0
 40
1
 40
1
 40
1
 40
1
 10
163.700172
 20
136.879640
 30
0.0
 10
163.928519
 20
136.076981
 30
0.0
 10
164.132172
 20
135.260654
 30
0.0
 10
164.187011
 20
134.430101
 30
0.0
  0
SPLINE
  5
1a0
100
AcDbEntity
  8
0
 62
7
100
AcDbSpline
 70
8
 71
3
 72
8
 73
4
 74
0
 40
0
 40
0
 40
0
 40
0
 40
1
 40
1
 40
1
 40
1
 10
164.187011
 20
134.430101
 30
0.0
 10
164.233335
 20
132.656307
 30
0.0
 10
163.481126
 20
130.934638
 30
0.0
 10
162.376994
 20
129.511789
 30
0.0
  0
SPLINE
  5
1a1
100
AcDbEntity
  8
0
 62
7
100
AcDbSpline
 70
8
 71
3
 72
8
 73
4
 74
0
 40
0
 40
0
 40
0
 40
0
 40
1
 40
1
 40
1
 40
1
 10
162.376994
 20
129.511789
 30
0.0
 10
160.865347
 20
127.579525
 30
0.0
 10
158.440446
 20
126.306181
 30
0.0
 10
155.885639
 20
126.049036
 30
0.0
  0
SPLINE
  5
1a2
100
AcDbEntity
  8
0
 62
7
100
AcDbSpline
 70
8
 71
3
 72
8
 73
4
 74
0
 40
0
 40
0
 40
0
 40
0
 40
1
 40
1
 40
1
 40
1
 10
155.885639
 20
126.049036
 30
0.0
 10
154.615773
 20
125.911028
 30
0.0
 10
153.336363
 20
126.020431
 30
0.0
 10
152.062191
 20
125.999580
 30
0.0
  0
SPLINE
  5
1a3
100
AcDbEntity
  8
0
 62
7
100
AcDbSpline
 70
8
 71
3
 72
8
 73
4
 74
0
 40
0
 40
0
 40
0
 40
0
 40
1
 40
1
 40
1
 40
1
 10
152.062191
 20
125.999580
 30
0.0
 10
146.928022
 20
126.013734
 30
0.0
 10
141.793050
 20
125.953930
 30
0.0
 10
136.659477
 20
126.039869
 30
0.0
  0
SPLINE
  5
1a4
100
AcDbEntity
  8
0
 62
7
100
AcDbSpline
 70
8
 71
3
 72
8
 73
4
 74
0
 40
0
 40
0
 40
0
 40
0
 40
1
 40
1
 40
1
 40
1
 10
136.659477
 20
126.039869
 30
0.0
 10
134.404223
 20
126.175702
 30
0.0
 10
132.155656
 20
127.035608
 30
0.0
 10
130.608660
 20
128.589343
 30
0.0
  0
SPLINE
  5
1a5
100
AcDbEntity
  8
0
 62
7
100
AcDbSpline
 70
8
 71
3
 72
8
 73
4
 74
0
 40
0
 40
0
 40
0
 40
0
 40
1
 40
1
 40
1
 40
1
 10
130.608660
 20
128.589343
 30
0.0
 10
129.158610
 20
130.062871
 30
0.0
 10
128.418152
 20
132.056430
 30
0.0
 10
128.353600
 20
134.033696
 30
0.0
  0
SPLINE
  5
1a6
100
AcDbEntity
  8
0
 62
7
100
AcDbSpline
 70
8
 71
3
 72
8
 73
4
 74
0
 40
0
 40
0
 40
0
 40
0
 40
1
 40
1
 40
1
 40
1
 10
128.353600
 20
134.033696
 30
0.0
 10
128.290669
 20
135.148042
 30
0.0
 10
128.451253
 20
136.271632
 30
0.0
 10
128.833089
 20
137.330227
 30
0.0
  0
SPLINE
  5
1a7
100
AcDbEntity
  8
0
 62
7
100
AcDbSpline
 70
8
 71
3
 72
8
 73
4
 74
0
 40
0
 40
0
 40
0
 40
0
 40
1
 40
1
 40
1
 40
1
 10
128.833089
 20
137.330227
 30
0.0
 10
129.347974
 20
138.915301
 30
0.0
 10
129.933845
 20
140.481042
 30
0.0
 10
130.415030
 20
142.074155
 30
0.0
  0
SPLINE
  5
1a8
100
AcDbEntity
  8
0
 62
7
100
AcDbSpline
 70
8
 71
3
 72
8
 73
4
 74
0
 40
0
 40
0
 40
0
 40
0
 40
1
 40
1
 40
1
 40
1
 10
130.415030
 20
142.074155
 30
0.0
 10
130.573073
 20
142.651596
 30
0.0
 10
130.754402
 20
143.230792
 30
0.0
 10
130.818887
 20
143.825572
 30
0.0
  0
SPLINE
  5
1a9
100
AcDbEntity
  8
0
 62
7
100
AcDbSpline
 70
8
 71
3
 72
8
 73
4
 74
0
 40
0
 40
0
 40
0
 40
0
 40
1
 40
1
 40
1
 40
1
 10
130.818887
 20
143.825572
 30
0.0
 10
130.922604
 20
145.145216
 30
0.0
 10
130.775962
 20
146.468282
 30
0.0
 10
130.797260
 20
147.790227
 30
0.0
  0
SPLINE
  5
1aa
100
AcDbEntity
  8
0
 62
7
100
AcDbSpline
 70
8
 71
3
 72
8
 73
4
 74
0
 40
0
 40
0
 40
0
 40
0
 40
1
 40
1
 40
1
 40
1
 10
130.797260
 20
147.790227
 30
0.0
 10
130.555843
 20
158.795158
 30
0.0
 10
129.313924
 20
169.750550
 30
0.0
 10
128.169192
 20
180.698559
 30
0.0
  0
SPLINE
  5
1ab
100
AcDbEntity
  8
0
 62
7
100
AcDbSpline
 70
8
 71
3
 72
8
 73
4
 74
0
 40
0
 40
0
 40
0
 40
0
 40
1
 40
1
 40
1
 40
1
 10
128.169192
 20
180.698559
 30
0.0
 10
127.194224
 20
190.424681
 30
0.0
 10
126.528041
 20
200.192712
 30
0.0
 10
126.728679
 20
209.965200
 30
0.0
  0
SPLINE
  5
1ac
100
AcDbEntity
  8
0
 62
7
100
AcDbSpline
 70
8
 71
3
 72
8
 73
4
 74
0
 40
0
 40
0
 40
0
 40
0
 40
1
 40
1
 40
1
 40
1
 10
126.728679
 20
209.965200
 30
0.0
 10
126.768265
 20
214.743773
 30
0.0
 10
126.898756
 20
219.528898
 30
0.0
 10
127.443152
 20
224.283995
 30
0.0
  0
SPLINE
  5
1ad
100
AcDbEntity
  8
0
 62
7
100
AcDbSpline
 70
8
 71
3
 72
8
 73
4
 74
0
 40
0
 40
0
 40
0
 40
0
 40
1
 40
1
 40
1
 40
1
 10
127.443152
 20
224.283995
 30
0.0
 10
127.811465
 20
227.878993
 30
0.0
 10
128.123178
 20
231.483542
 30
0.0
 10
128.737503
 20
235.051695
 30
0.0
  0
SPLINE
  5
1ae
100
AcDbEntity
  8
0
 62
7
100
AcDbSpline
 70
8
 71
3
 72
8
 73
4
 74
0
 40
0
 40
0
 40
0
 40
0
 40
1
 40
1
 40
1
 40
1
 10
128.737503
 20
235.051695
 30
0.0
 10
129.270840
 20
238.098135
 30
0.0
 10
130.051472
 20
241.122524
 30
0.0
 10
131.297908
 20
243.989566
 30
0.0
  0
SPLINE
  5
1af
100
AcDbEntity
  8
0
 62
7
100
AcDbSpline
 70
8
 71
3
 72
8
 73
4
 74
0
 40
0
 40
0
 40
0
 40
0
 40
1
 40
1
 40
1
 40
1
 10
131.297908
 20
243.989566
 30
0.0
 10
131.271997
 20
244.030360
 30
0.0
 10
131.169790
 20
243.966405
 30
0.0
 10
131.121614
 20
243.991543
 30
0.0
  0
SPLINE
  5
1b0
100
AcDbEntity
  8
0
 62
7
100
AcDbSpline
 70
8
 71
3
 72
8
 73
4
 74
0
 40
0
 40
0
 40
0
 40
0
 40
1
 40
1
 40
1
 40
1
 10
131.121614
 20
243.991543
 30
0.0
 10
128.112478
 20
244.007849
 30
0.0
 10
125.099420
 20
243.905166
 30
0.0
 10
122.093532
 20
244.072965
 30
0.0
  0
SPLINE
  5
1b1
100
AcDbEntity
  8
0
 62
7
100
AcDbSpline
 70
8
 71
3
 72
8
 73
4
 74
0
 40
0
 40
0
 40
0
 40
0
 40
1
 40
1
 40
1
 40
1
 10
122.093532
 20
244.072965
 30
0.0
 10
118.410072
 20
244.580622
 30
0.0
 10
115.156934
 20
247.259584
 30
0.0
 10
114.289818
 20
250.633216
 30
0.0
  0
SPLINE
  5
1b2
100
AcDbEntity
  8
0
 62
7
100
AcDbSpline
 70
8
 71
3
 72
8
 73
4
 74
0
 40
0
 40
0
 40
0
 40
0
 40
1
 40
1
 40
1
 40
1
 10
114.289818
 20
250.633216
 30
0.0
 10
113.696088
 20
252.930274
 30
0.0
 10
114.294213
 20
255.429146
 30
0.0
 10
115.750860
 20
257.350878
 30
0.0
  0
SPLINE
  5
1b3
100
AcDbEntity
  8
0
 62
7
100
AcDbSpline
 70
8
 71
3
 72
8
 73
4
 74
0
 40
0
 40
0
 40
0
 40
0
 40
1
 40
1
 40
1
 40
1
 10
115.750860
 20
257.350878
 30
0.0
 10
117.392258
 20
259.692022
 30
0.0
 10
119.379572
 20
261.798122
 30
0.0
 10
121.250602
 20
263.979346
 30
0.0
  0
SPLINE
  5
1b4
100
AcDbEntity
  8
0
 62
7
100
AcDbSpline
 70
8
 71
3
 72
8
 73
4
 74
0
 40
0
 40
0
 40
0
 40
0
 40
1
 40
1
 40
1
 40
1
 10
121.250602
 20
263.979346
 30
0.0
 10
122.070603
 20
264.960442
 30
0.0
 10
122.854463
 20
265.985688
 30
0.0
 10
123.372082
 20
267.135731
 30
0.0
  0
SPLINE
  5
1b5
100
AcDbEntity
  8
0
 62
7
100
AcDbSpline
 70
8
 71
3
 72
8
 73
4
 74
0
 40
0
 40
0
 40
0
 40
0
 40
1
 40
1
 40
1
 40
1
 10
123.372082
 20
267.135731
 30
0.0
 10
123.593064
 20
267.669031
 30
0.0
 10
123.641083
 20
268.249333
 30
0.0
 10
123.533003
 20
268.809534
 30
0.0
  0
SPLINE
  5
1b6
100
AcDbEntity
  8
0
 62
7
100
AcDbSpline
 70
8
 71
3
 72
8
 73
4
 74
0
 40
0
 40
0
 40
0
 40
0
 40
1
 40
1
 40
1
 40
1
 10
123.533003
 20
268.809534
 30
0.0
 10
123.356199
 20
270.050752
 30
0.0
 10
122.924481
 20
271.244470
 30
0.0
 10
122.468638
 20
272.417497
 30
0.0
  0
SPLINE
  5
1b7
100
AcDbEntity
  8
0
 62
7
100
AcDbSpline
 70
8
 71
3
 72
8
 73
4
 74
0
 40
0
 40
0
 40
0
 40
0
 40
1
 40
1
 40
1
 40
1
 10
122.468638
 20
272.417497
 30
0.0
 10
121.203457
 20
275.459197
 30
0.0
 10
119.288622
 20
278.227355
 30
0.0
 10
118.046524
 20
281.279019
 30
0.0
  0
SPLINE
  5
1b8
100
AcDbEntity
  8
0
 62
7
100
AcDbSpline
 70
8
 71
3
 72
8
 73
4
 74
0
 40
0
 40
0
 40
0
 40
0
 40
1
 40
1
 40
1
 40
1
 10
118.046524
 20
281.279019
 30
0.0
 10
116.905496
 20
283.969394
 30
0.0
 10
116.033164
 20
286.782871
 30
0.0
 10
115.758803
 20
289.671228
 30
0.0
  0
SPLINE
  5
1b9
100
AcDbEntity
  8
0
 62
7
100
AcDbSpline
 70
8
 71
3
 72
8
 73
4
 74
0
 40
0
 40
0
 40
0
 40
0
 40
1
 40
1
 40
1
 40
1
 10
115.758803
 20
289.671228
 30
0.0
 10
115.531861
 20
292.654725
 30
0.0
 10
116.069492
 20
295.671910
 30
0.0
 10
117.218414
 20
298.461185
 30
0.0
  0
SPLINE
  5
1ba
100
AcDbEntity
  8
0
 62
7
100
AcDbSpline
 70
8
 71
3
 72
8
 73
4
 74
0
 40
0
 40
0
 40
0
 40
0
 40
1
 40
1
 40
1
 40
1
 10
117.218414
 20
298.461185
 30
0.0
 10
117.804111
 20
299.938707
 30
0.0
 10
118.547103
 20
301.356629
 30
0.0
 10
119.222595
 20
302.798548
 30
0.0
  0
SPLINE
  5
1bb
100
AcDbEntity
  8
0
 62
7
100
AcDbSpline
 70
8
 71
3
 72
8
 73
4
 74
0
 40
0
 40
0
 40
0
 40
0
 40
1
 40
1
 40
1
 40
1
 10
119.222595
 20
302.798548
 30
0.0
 10
119.679789
 20
303.824676
 30
0.0
 10
120.105292
 20
304.877524
 30
0.0
 10
120.272964
 20
305.980985
 30
0.0
  0
SPLINE
  5
1bc
100
AcDbEntity
  8
0
 62
7
100
AcDbSpline
 70
8
 71
3
 72
8
 73
4
 74
0
 40
0
 40
0
 40
0
 40
0
 40
1
 40
1
 40
1
 40
1
 10
120.272964
 20
305.980985
 30
0.0
 10
120.308831
 20
306.997060
 30
0.0
 10
119.905191
 20
307.966702
 30
0.0
 10
119.408483
 20
308.854948
 30
0.0
  0
SPLINE
  5
1bd
100
AcDbEntity
  8
0
 62
7
100
AcDbSpline
 70
8
 71
3
 72
8
 73
4
 74
0
 40
0
 40
0
 40
0
 40
0
 40
1
 40
1
 40
1
 40
1
 10
119.408483
 20
308.854948
 30
0.0
 10
118.737000
 20
310.091026
 30
0.0
 10
118.065073
 20
311.327308
 30
0.0
 10
117.432352
 20
312.580968
 30
0.0
  0
SPLINE
  5
1be
100
AcDbEntity
  8
0
 62
7
100
AcDbSpline
 70
8
 71
3
 72
8
 73
4
 74
0
 40
0
 40
0
 40
0
 40
0
 40
1
 40
1
 40
1
 40
1
 10
117.432352
 20
312.580968
 30
0.0
 10
116.926407
 20
313.583219
 30
0.0
 10
116.476037
 20
314.609315
 30
0.0
 10
116.080970
 20
315.653260
 30
0.0
  0
SPLINE
  5
1bf
100
AcDbEntity
  8
0
 62
7
100
AcDbSpline
 70
8
 71
3
 72
8
 73
4
 74
0
 40
0
 40
0
 40
0
 40
0
 40
1
 40
1
 40
1
 40
1
 10
116.080970
 20
315.653260
 30
0.0
 10
115.707052
 20
316.522531
 30
0.0
 10
115.380001
 20
317.426061
 30
0.0
 10
115.313482
 20
318.366267
 30
0.0
  0
SPLINE
  5
1c0
100
AcDbEntity
  8
0
 62
7
100
AcDbSpline
 70
8
 71
3
 72
8
 73
4
 74
0
 40
0
 40
0
 40
0
 40
0
 40
1
 40
1
 40
1
 40
1
 10
115.313482
 20
318.366267
 30
0.0
 10
108.785276
 20
313.389319
 30
0.0
 10
103.641057
 20
307.025933
 30
0.0
 10
99.479400
 20
300.243546
 30
0.0
  0
SPLINE
  5
1c1
100
AcDbEntity
  8
0
 62
7
100
AcDbSpline
 70
8
 71
3
 72
8
 73
4
 74
0
 40
0
 40
0
 40
0
 40
0
 40
1
 40
1
 40
1
 40
1
 10
99.479400
 20
300.243546
 30
0.0
 10
95.391371
 20
293.587277
 30
0.0
 10
92.152331
 20
286.505042
 30
0.0
 10
89.509379
 20
279.254865
 30
0.0
  0
SPLINE
  5
1c2
100
AcDbEntity
  8
0
 62
7
100
AcDbSpline
 70
8
 71
3
 72
8
 73
4
 74
0
 40
0
 40
0
 40
0
 40
0
 40
1
 40
1
 40
1
 40
1
 10
89.509379
 20
279.254865
 30
0.0
 10
87.303513
 20
272.875274
 30
0.0
 10
86.080552
 20
266.245820
 30
0.0
 10
85.173411
 20
259.612947
 30
0.0
  0
SPLINE
  5
1c3
100
AcDbEntity
  8
0
 62
7
100
AcDbSpline
 70
8
 71
3
 72
8
 73
4
 74
0
 40
0
 40
0
 40
0
 40
0
 40
1
 40
1
 40
1
 40
1
 10
85.173411
 20
259.612947
 30
0.0
 10
83.677910
 20
248.379985
 30
0.0
 10
83.284246
 20
237.047142
 30
0.0
 10
83.291830
 20
225.736152
 30
0.0
  0
SPLINE
  5
1c4
100
AcDbEntity
  8
0
 62
7
100
AcDbSpline
 70
8
 71
3
 72
8
 73
4
 74
0
 40
0
 40
0
 40
0
 40
0
 40
1
 40
1
 40
1
 40
1
 10
83.291830
 20
225.736152
 30
0.0
 10
83.354746
 20
210.703190
 30
0.0
 10
84.501258
 20
195.614537
 30
0.0
 10
87.863850
 20
180.886958
 30
0.0
  0
SPLINE
  5
1c5
100
AcDbEntity
  8
0
 62
7
100
AcDbSpline
 70
8
 71
3
 72
8
 73
4
 74
0
 40
0
 40
0
 40
0
 40
0
 40
1
 40
1
 40
1
 40
1
 10
87.863850
 20
180.886958
 30
0.0
 10
90.062358
 20
171.332772
 30
0.0
 10
93.263748
 20
161.921262
 30
0.0
 10
98.113178
 20
153.224808
 30
0.0
  0
SPLINE
  5
1c6
100
AcDbEntity
  8
0
 62
7
100
AcDbSpline
 70
8
 71
3
 72
8
 73
4
 74
0
 40
0
 40
0
 40
0
 40
0
 40
1
 40
1
 40
1
 40
1
 10
98.113178
 20
153.224808
 30
0.0
 10
101.183862
 20
147.746808
 30
0.0
 10
104.936371
 20
142.566912
 30
0.0
 10
109.542344
 20
138.094053
 30
0.0
  0
SPLINE
  5
1c7
100
AcDbEntity
  8
0
 62
7
100
AcDbSpline
 70
8
 71
3
 72
8
 73
4
 74
0
 40
0
 40
0
 40
0
 40
0
 40
1
 40
1
 40
1
 40
1
 10
109.542344
 20
138.094053
 30
0.0
 10
113.790256
 20
134.018459
 30
0.0
 10
118.918668
 20
130.667880
 30
0.0
 10
124.656359
 20
128.664543
 30
0.0
  0
SPLINE
  5
1c8
100
AcDbEntity
  8
0
 62
7
100
AcDbSpline
 70
8
 71
3
 72
8
 73
4
 74
0
 40
0
 40
0
 40
0
 40
0
 40
1
 40
1
 40
1
 40
1
 10
124.656359
 20
128.664543
 30
0.0
 10
128.645602
 20
127.255798
 30
0.0
 10
132.818519
 20
126.212294
 30
0.0
 10
137.081898
 20
125.896571
 30
0.0
  0
SPLINE
  5
1c9
100
AcDbEntity
  8
0
 62
7
100
AcDbSpline
 70
8
 71
3
 72
8
 73
4
 74
0
 40
0
 40
0
 40
0
 40
0
 40
1
 40
1
 40
1
 40
1
 10
137.081898
 20
125.896571
 30
0.0
 10
138.447748
 20
125.787426
 30
0.0
 10
139.819256
 20
125.736955
 30
0.0
 10
141.191135
 20
125.735911
 30
0.0
  0
LWPOLYLINE
  5
1ca
100
AcDbEntity
  8
0
 62
7
100
AcDbPolyline
 90
1
 70
1
 10
452.814291
 20
107.135284
 30
0.0
  0
SPLINE
  5
1cb
100
AcDbEntity
  8
0
 62
7
100
AcDbSpline
 70
8
 71
3
 72
8
 73
4
 74
0
 40
0
 40
0
 40
0
 40
0
 40
1
 40
1
 40
1
 40
1
 10
288.286159
 20
126.214807
 30
0.0
 10
282.378067
 20
126.234546
 30
0.0
 10
276.461571
 20
126.819892
 30
0.0
 10
270.715362
 20
128.110145
 30
0.0
  0
SPLINE
  5
1cc
100
AcDbEntity
  8
0
 62
7
100
AcDbSpline
 70
8
 71
3
 72
8
 73
4
 74
0
 40
0
 40
0
 40
0
 40
0
 40
1
 40
1
 40
1
 40
1
 10
270.715362
 20
128.110145
 30
0.0
 10
268.048058
 20
128.676303
 30
0.0
 10
265.357004
 20
129.192665
 30
0.0
 10
262.626830
 20
129.391682
 30
0.0
  0
SPLINE
  5
1cd
100
AcDbEntity
  8
0
 62
7
100
AcDbSpline
 70
8
 71
3
 72
8
 73
4
 74
0
 40
0
 40
0
 40
0
 40
0
 40
1
 40
1
 40
1
 40
1
 10
262.626830
 20
129.391682
 30
0.0
 10
260.290829
 20
129.683636
 30
0.0
 10
257.994046
 20
130.346328
 30
0.0
 10
255.620437
 20
130.256381
 30
0.0
  0
SPLINE
  5
1ce
100
AcDbEntity
  8
0
 62
7
100
AcDbSpline
 70
8
 71
3
 72
8
 73
4
 74
0
 40
0
 40
0
 40
0
 40
0
 40
1
 40
1
 40
1
 40
1
 10
255.620437
 20
130.256381
 30
0.0
 10
254.311662
 20
130.212334
 30
0.0
 10
253.009184
 20
130.022826
 30
0.0
 10
251.706037
 20
129.885276
 30
0.0
  0
SPLINE
  5
1cf
100
AcDbEntity
  8
0
 62
7
100
AcDbSpline
 70
8
 71
3
 72
8
 73
4
 74
0
 40
0
 40
0
 40
0
 40
0
 40
1
 40
1
 40
1
 40
1
 10
251.706037
 20
129.885276
 30
0.0
 10
250.074214
 20
129.687422
 30
0.0
 10
248.463638
 20
129.364523
 30
0.0
 10
246.870613
 20
128.979482
 30
0.0
  0
SPLINE
  5
1d0
100
AcDbEntity
  8
0
 62
7
100
AcDbSpline
 70
8
 71
3
 72
8
 73
4
 74
0
 40
0
 40
0
 40
0
 40
0
 40
1
 40
1
 40
1
 40
1
 10
246.870613
 20
128.979482
 30
0.0
 10
244.302992
 20
128.383979
 30
0.0
 10
241.729024
 20
127.760292
 30
0.0
 10
239.089783
 20
127.505584
 30
0.0
  0
SPLINE
  5
1d1
100
AcDbEntity
  8
0
 62
7
100
AcDbSpline
 70
8
 71
3
 72
8
 73
4
 74
0
 40
0
 40
0
 40
0
 40
0
 40
1
 40
1
 40
1
 40
1
 10
239.089783
 20
127.505584
 30
0.0
 10
234.093865
 20
126.927074
 30
0.0
 10
229.051414
 20
126.847636
 30
0.0
 10
224.022920
 20
126.811550
 30
0.0
  0
SPLINE
  5
1d2
100
AcDbEntity
  8
0
 62
7
100
AcDbSpline
 70
8
 71
3
 72
8
 73
4
 74
0
 40
0
 40
0
 40
0
 40
0
 40
1
 40
1
 40
1
 40
1
 10
224.022920
 20
126.811550
 30
0.0
 10
222.837727
 20
126.813672
 30
0.0
 10
221.654096
 20
126.918216
 30
0.0
 10
220.489603
 20
127.122223
 30
0.0
  0
SPLINE
  5
1d3
100
AcDbEntity
  8
0
 62
7
100
AcDbSpline
 70
8
 71
3
 72
8
 73
4
 74
0
 40
0
 40
0
 40
0
 40
0
 40
1
 40
1
 40
1
 40
1
 10
220.489603
 20
127.122223
 30
0.0
 10
217.448480
 20
127.604102
 30
0.0
 10
214.416008
 20
128.177627
 30
0.0
 10
211.472858
 20
129.046213
 30
0.0
  0
SPLINE
  5
1d4
100
AcDbEntity
  8
0
 62
7
100
AcDbSpline
 70
8
 71
3
 72
8
 73
4
 74
0
 40
0
 40
0
 40
0
 40
0
 40
1
 40
1
 40
1
 40
1
 10
211.472858
 20
129.046213
 30
0.0
 10
208.588164
 20
129.893248
 30
0.0
 10
205.774719
 20
130.992046
 30
0.0
 10
203.194776
 20
132.466466
 30
0.0
  0
SPLINE
  5
1d5
100
AcDbEntity
  8
0
 62
7
100
AcDbSpline
 70
8
 71
3
 72
8
 73
4
 74
0
 40
0
 40
0
 40
0
 40
0
 40
1
 40
1
 40
1
 40
1
 10
203.194776
 20
132.466466
 30
0.0
 10
201.827297
 20
133.274062
 30
0.0
 10
200.608736
 20
134.334684
 30
0.0
 10
199.795800
 20
135.645406
 30
0.0
  0
SPLINE
  5
1d6
100
AcDbEntity
  8
0
 62
7
100
AcDbSpline
 70
8
 71
3
 72
8
 73
4
 74
0
 40
0
 40
0
 40
0
 40
0
 40
1
 40
1
 40
1
 40
1
 10
199.795800
 20
135.645406
 30
0.0
 10
198.295988
 20
137.962253
 30
0.0
 10
197.892247
 20
140.915263
 30
0.0
 10
198.924010
 20
143.463217
 30
0.0
  0
SPLINE
  5
1d7
100
AcDbEntity
  8
0
 62
7
100
AcDbSpline
 70
8
 71
3
 72
8
 73
4
 74
0
 40
0
 40
0
 40
0
 40
0
 40
1
 40
1
 40
1
 40
1
 10
198.924010
 20
143.463217
 30
0.0
 10
199.676680
 20
145.326786
 30
0.0
 10
201.018823
 20
146.933872
 30
0.0
 10
202.536088
 20
148.319049
 30
0.0
  0
SPLINE
  5
1d8
100
AcDbEntity
  8
0
 62
7
100
AcDbSpline
 70
8
 71
3
 72
8
 73
4
 74
0
 40
0
 40
0
 40
0
 40
0
 40
1
 40
1
 40
1
 40
1
 10
202.536088
 20
148.319049
 30
0.0
 10
204.852728
 20
150.381600
 30
0.0
 10
207.736133
 20
151.794848
 30
0.0
 10
210.689076
 20
152.909255
 30
0.0
  0
SPLINE
  5
1d9
100
AcDbEntity
  8
0
 62
7
100
AcDbSpline
 70
8
 71
3
 72
8
 73
4
 74
0
 40
0
 40
0
 40
0
 40
0
 40
1
 40
1
 40
1
 40
1
 10
210.689076
 20
152.909255
 30
0.0
 10
212.626220
 20
153.655222
 30
0.0
 10
214.576528
 20
154.381259
 30
0.0
 10
216.581525
 20
154.956870
 30
0.0
  0
SPLINE
  5
1da
100
AcDbEntity
  8
0
 62
7
100
AcDbSpline
 70
8
 71
3
 72
8
 73
4
 74
0
 40
0
 40
0
 40
0
 40
0
 40
1
 40
1
 40
1
 40
1
 10
216.581525
 20
154.956870
 30
0.0
 10
222.322056
 20
156.559299
 30
0.0
 10
228.364414
 20
157.013959
 30
0.0
 10
234.060843
 20
158.758231
 30
0.0
  0
SPLINE
  5
1db
100
AcDbEntity
  8
0
 62
7
100
AcDbSpline
 70
8
 71
3
 72
8
 73
4
 74
0
 40
0
 40
0
 40
0
 40
0
 40
1
 40
1
 40
1
 40
1
 10
234.060843
 20
158.758231
 30
0.0
 10
240.123654
 20
160.557151
 30
0.0
 10
246.221965
 20
162.253819
 30
0.0
 10
252.274710
 20
164.080995
 30
0.0
  0
SPLINE
  5
1dc
100
AcDbEntity
  8
0
 62
7
100
AcDbSpline
 70
8
 71
3
 72
8
 73
4
 74
0
 40
0
 40
0
 40
0
 40
0
 40
1
 40
1
 40
1
 40
1
 10
252.274710
 20
164.080995
 30
0.0
 10
252.877570
 20
164.257373
 30
0.0
 10
253.472695
 20
164.455882
 30
0.0
 10
254.047244
 20
164.701698
 30
0.0
  0
SPLINE
  5
1dd
100
AcDbEntity
  8
0
 62
7
100
AcDbSpline
 70
8
 71
3
 72
8
 73
4
 74
0
 40
0
 40
0
 40
0
 40
0
 40
1
 40
1
 40
1
 40
1
 10
254.047244
 20
164.701698
 30
0.0
 10
257.107209
 20
165.937077
 30
0.0
 10
260.046591
 20
167.520412
 30
0.0
 10
262.464104
 20
169.678093
 30
0.0
  0
SPLINE
  5
1de
100
AcDbEntity
  8
0
 62
7
100
AcDbSpline
 70
8
 71
3
 72
8
 73
4
 74
0
 40
0
 40
0
 40
0
 40
0
 40
1
 40
1
 40
1
 40
1
 10
262.464104
 20
169.678093
 30
0.0
 10
263.458335
 20
170.542309
 30
0.0
 10
264.317927
 20
171.591976
 30
0.0
 10
264.688796
 20
172.822882
 30
0.0
  0
SPLINE
  5
1df
100
AcDbEntity
  8
0
 62
7
100
AcDbSpline
 70
8
 71
3
 72
8
 73
4
 74
0
 40
0
 40
0
 40
0
 40
0
 40
1
 40
1
 40
1
 40
1
 10
264.688796
 20
172.822882
 30
0.0
 10
265.497096
 20
175.067566
 30
0.0
 10
265.753481
 20
177.438032
 30
0.0
 10
265.870469
 20
179.789951
 30
0.0
  0
SPLINE
  5
1e0
100
AcDbEntity
  8
0
 62
7
100
AcDbSpline
 70
8
 71
3
 72
8
 73
4
 74
0
 40
0
 40
0
 40
0
 40
0
 40
1
 40
1
 40
1
 40
1
 10
265.870469
 20
179.789951
 30
0.0
 10
266.008825
 20
183.490114
 30
0.0
 10
265.674250
 20
187.187757
 30
0.0
 10
265.684216
 20
190.888211
 30
0.0
  0
SPLINE
  5
1e1
100
AcDbEntity
  8
0
 62
7
100
AcDbSpline
 70
8
 71
3
 72
8
 73
4
 74
0
 40
0
 40
0
 40
0
 40
0
 40
1
 40
1
 40
1
 40
1
 10
265.684216
 20
190.888211
 30
0.0
 10
265.516706
 20
198.236429
 30
0.0
 10
264.838680
 20
205.570632
 30
0.0
 10
264.863620
 20
212.923683
 30
0.0
  0
SPLINE
  5
1e2
100
AcDbEntity
  8
0
 62
7
100
AcDbSpline
 70
8
 71
3
 72
8
 73
4
 74
0
 40
0
 40
0
 40
0
 40
0
 40
1
 40
1
 40
1
 40
1
 10
264.863620
 20
212.923683
 30
0.0
 10
264.738675
 20
228.896872
 30
0.0
 10
264.599202
 20
244.869972
 30
0.0
 10
264.500684
 20
260.843329
 30
0.0
  0
SPLINE
  5
1e3
100
AcDbEntity
  8
0
 62
7
100
AcDbSpline
 70
8
 71
3
 72
8
 73
4
 74
0
 40
0
 40
0
 40
0
 40
0
 40
1
 40
1
 40
1
 40
1
 10
264.500684
 20
260.843329
 30
0.0
 10
264.373409
 20
280.740975
 30
0.0
 10
264.275262
 20
300.638878
 30
0.0
 10
264.263983
 20
320.536894
 30
0.0
  0
SPLINE
  5
1e4
100
AcDbEntity
  8
0
 62
7
100
AcDbSpline
 70
8
 71
3
 72
8
 73
4
 74
0
 40
0
 40
0
 40
0
 40
0
 40
1
 40
1
 40
1
 40
1
 10
264.263983
 20
320.536894
 30
0.0
 10
264.269560
 20
321.507374
 30
0.0
 10
264.249133
 20
322.481712
 30
0.0
 10
264.351568
 20
323.448373
 30
0.0
  0
SPLINE
  5
1e5
100
AcDbEntity
  8
0
 62
7
100
AcDbSpline
 70
8
 71
3
 72
8
 73
4
 74
0
 40
0
 40
0
 40
0
 40
0
 40
1
 40
1
 40
1
 40
1
 10
264.351568
 20
323.448373
 30
0.0
 10
264.761581
 20
325.373338
 30
0.0
 10
266.601496
 20
326.985387
 30
0.0
 10
268.724447
 20
327.163247
 30
0.0
  0
SPLINE
  5
1e6
100
AcDbEntity
  8
0
 62
7
100
AcDbSpline
 70
8
 71
3
 72
8
 73
4
 74
0
 40
0
 40
0
 40
0
 40
0
 40
1
 40
1
 40
1
 40
1
 10
268.724447
 20
327.163247
 30
0.0
 10
270.226837
 20
327.282715
 30
0.0
 10
271.736689
 20
327.151931
 30
0.0
 10
273.239996
 20
327.204275
 30
0.0
  0
SPLINE
  5
1e7
100
AcDbEntity
  8
0
 62
7
100
AcDbSpline
 70
8
 71
3
 72
8
 73
4
 74
0
 40
0
 40
0
 40
0
 40
0
 40
1
 40
1
 40
1
 40
1
 10
273.239996
 20
327.204275
 30
0.0
 10
283.798945
 20
327.194924
 30
0.0
 10
294.358067
 20
327.236865
 30
0.0
 10
304.916867
 20
327.176356
 30
0.0
  0
SPLINE
  5
1e8
100
AcDbEntity
  8
0
 62
7
100
AcDbSpline
 70
8
 71
3
 72
8
 73
4
 74
0
 40
0
 40
0
 40
0
 40
0
 40
1
 40
1
 40
1
 40
1
 10
304.916867
 20
327.176356
 30
0.0
 10
307.166672
 20
326.971616
 30
0.0
 10
309.139614
 20
325.185495
 30
0.0
 10
309.359408
 20
323.090913
 30
0.0
  0
SPLINE
  5
1e9
100
AcDbEntity
  8
0
 62
7
100
AcDbSpline
 70
8
 71
3
 72
8
 73
4
 74
0
 40
0
 40
0
 40
0
 40
0
 40
1
 40
1
 40
1
 40
1
 10
309.359408
 20
323.090913
 30
0.0
 10
309.491419
 20
321.618861
 30
0.0
 10
309.351178
 20
320.139806
 30
0.0
 10
309.407676
 20
318.666842
 30
0.0
  0
SPLINE
  5
1ea
100
AcDbEntity
  8
0
 62
7
100
AcDbSpline
 70
8
 71
3
 72
8
 73
4
 74
0
 40
0
 40
0
 40
0
 40
0
 40
1
 40
1
 40
1
 40
1
 10
309.407676
 20
318.666842
 30
0.0
 10
309.395900
 20
280.207677
 30
0.0
 10
309.437226
 20
241.748480
 30
0.0
 10
309.380654
 20
203.289340
 30
0.0
  0
SPLINE
  5
1eb
100
AcDbEntity
  8
0
 62
7
100
AcDbSpline
 70
8
 71
3
 72
8
 73
4
 74
0
 40
0
 40
0
 40
0
 40
0
 40
1
 40
1
 40
1
 40
1
 10
309.380654
 20
203.289340
 30
0.0
 10
309.260022
 20
190.597629
 30
0.0
 10
308.902764
 20
177.905066
 30
0.0
 10
308.098306
 20
165.233822
 30
0.0
  0
SPLINE
  5
1ec
100
AcDbEntity
  8
0
 62
7
100
AcDbSpline
 70
8
 71
3
 72
8
 73
4
 74
0
 40
0
 40
0
 40
0
 40
0
 40
1
 40
1
 40
1
 40
1
 10
308.098306
 20
165.233822
 30
0.0
 10
307.891006
 20
162.565167
 30
0.0
 10
307.508536
 20
159.911421
 30
0.0
 10
307.176985
 20
157.255130
 30
0.0
  0
SPLINE
  5
1ed
100
AcDbEntity
  8
0
 62
7
100
AcDbSpline
 70
8
 71
3
 72
8
 73
4
 74
0
 40
0
 40
0
 40
0
 40
0
 40
1
 40
1
 40
1
 40
1
 10
307.176985
 20
157.255130
 30
0.0
 10
307.279519
 20
155.608360
 30
0.0
 10
307.529087
 20
153.972026
 30
0.0
 10
307.692780
 20
152.328445
 30
0.0
  0
SPLINE
  5
1ee
100
AcDbEntity
  8
0
 62
7
100
AcDbSpline
 70
8
 71
3
 72
8
 73
4
 74
0
 40
0
 40
0
 40
0
 40
0
 40
1
 40
1
 40
1
 40
1
 10
307.692780
 20
152.328445
 30
0.0
 10
308.166381
 20
148.251111
 30
0.0
 10
308.691274
 20
144.156313
 30
0.0
 10
308.526094
 20
140.047868
 30
0.0
  0
SPLINE
  5
1ef
100
AcDbEntity
  8
0
 62
7
100
AcDbSpline
 70
8
 71
3
 72
8
 73
4
 74
0
 40
0
 40
0
 40
0
 40
0
 40
1
 40
1
 40
1
 40
1
 10
308.526094
 20
140.047868
 30
0.0
 10
308.441260
 20
139.344571
 30
0.0
 10
308.047039
 20
138.719949
 30
0.0
 10
307.808825
 20
138.061204
 30
0.0
  0
SPLINE
  5
1f0
100
AcDbEntity
  8
0
 62
7
100
AcDbSpline
 70
8
 71
3
 72
8
 73
4
 74
0
 40
0
 40
0
 40
0
 40
0
 40
1
 40
1
 40
1
 40
1
 10
307.808825
 20
138.061204
 30
0.0
 10
307.278007
 20
135.310448
 30
0.0
 10
305.566383
 20
132.821565
 30
0.0
 10
303.273468
 20
131.036342
 30
0.0
  0
SPLINE
  5
1f1
100
AcDbEntity
  8
0
 62
7
100
AcDbSpline
 70
8
 71
3
 72
8
 73
4
 74
0
 40
0
 40
0
 40
0
 40
0
 40
1
 40
1
 40
1
 40
1
 10
303.273468
 20
131.036342
 30
0.0
 10
301.213511
 20
129.422214
 30
0.0
 10
298.729013
 20
128.369484
 30
0.0
 10
296.227384
 20
127.486970
 30
0.0
  0
SPLINE
  5
1f2
100
AcDbEntity
  8
0
 62
7
100
AcDbSpline
 70
8
 71
3
 72
8
 73
4
 74
0
 40
0
 40
0
 40
0
 40
0
 40
1
 40
1
 40
1
 40
1
 10
296.227384
 20
127.486970
 30
0.0
 10
293.803624
 20
126.652872
 30
0.0
 10
291.223409
 20
126.169343
 30
0.0
 10
288.631865
 20
126.214179
 30
0.0
  0
SPLINE
  5
1f3
100
AcDbEntity
  8
0
 62
7
100
AcDbSpline
 70
8
 71
3
 72
8
 73
4
 74
0
 40
0
 40
0
 40
0
 40
0
 40
1
 40
1
 40
1
 40
1
 10
288.631865
 20
126.214179
 30
0.0
 10
288.516613
 20
126.214386
 30
0.0
 10
288.401386
 20
126.214597
 30
0.0
 10
288.286159
 20
126.214806
 30
0.0
  0
LWPOLYLINE
  5
1f4
100
AcDbEntity
  8
0
 62
7
100
AcDbPolyline
 90
1
 70
1
 10
141.191135
 20
125.735911
 30
0.0
  0
SPLINE
  5
1f5
100
AcDbEntity
  8
0
 62
7
100
AcDbSpline
 70
8
 71
3
 72
8
 73
4
 74
0
 40
0
 40
0
 40
0
 40
0
 40
1
 40
1
 40
1
 40
1
 10
286.800502
 20
144.251241
 30
0.0
 10
287.280202
 20
144.496311
 30
0.0
 10
287.772843
 20
144.718688
 30
0.0
 10
288.254724
 20
144.960043
 30
0.0
  0
SPLINE
  5
1f6
100
AcDbEntity
  8
0
 62
7
100
AcDbSpline
 70
8
 71
3
 72
8
 73
4
 74
0
 40
0
 40
0
 40
0
 40
0
 40
1
 40
1
 40
1
 40
1
 10
288.254724
 20
144.960043
 30
0.0
 10
288.048713
 20
149.271298
 30
0.0
 10
287.241950
 20
153.565327
 30
0.0
 10
287.492758
 20
157.891974
 30
0.0
  0
SPLINE
  5
1f7
100
AcDbEntity
  8
0
 62
7
100
AcDbSpline
 70
8
 71
3
 72
8
 73
4
 74
0
 40
0
 40
0
 40
0
 40
0
 40
1
 40
1
 40
1
 40
1
 10
287.492758
 20
157.891974
 30
0.0
 10
287.678489
 20
160.547628
 30
0.0
 10
288.167064
 20
163.173583
 30
0.0
 10
288.521993
 20
165.811361
 30
0.0
  0
SPLINE
  5
1f8
100
AcDbEntity
  8
0
 62
7
100
AcDbSpline
 70
8
 71
3
 72
8
 73
4
 74
0
 40
0
 40
0
 40
0
 40
0
 40
1
 40
1
 40
1
 40
1
 10
288.521993
 20
165.811361
 30
0.0
 10
288.948566
 20
168.718645
 30
0.0
 10
289.270746
 20
171.641162
 30
0.0
 10
289.322335
 20
174.576712
 30
0.0
  0
SPLINE
  5
1f9
100
AcDbEntity
  8
0
 62
7
100
AcDbSpline
 70
8
 71
3
 72
8
 73
4
 74
0
 40
0
 40
0
 40
0
 40
0
 40
1
 40
1
 40
1
 40
1
 10
289.322335
 20
174.576712
 30
0.0
 10
289.743802
 20
185.922999
 30
0.0
 10
289.325533
 20
197.283670
 30
0.0
 10
289.874349
 20
208.627473
 30
0.0
  0
SPLINE
  5
1fa
100
AcDbEntity
  8
0
 62
7
100
AcDbSpline
 70
8
 71
3
 72
8
 73
4
 74
0
 40
0
 40
0
 40
0
 40
0
 40
1
 40
1
 40
1
 40
1
 10
289.874349
 20
208.627473
 30
0.0
 10
290.008417
 20
211.997800
 30
0.0
 10
289.922146
 20
215.371905
 30
0.0
 10
289.922542
 20
218.743878
 30
0.0
  0
SPLINE
  5
1fb
100
AcDbEntity
  8
0
 62
7
100
AcDbSpline
 70
8
 71
3
 72
8
 73
4
 74
0
 40
0
 40
0
 40
0
 40
0
 40
1
 40
1
 40
1
 40
1
 10
289.922542
 20
218.743878
 30
0.0
 10
289.797548
 20
248.718092
 30
0.0
 10
289.626591
 20
278.692163
 30
0.0
 10
289.553260
 20
308.666544
 30
0.0
  0
SPLINE
  5
1fc
100
AcDbEntity
  8
0
 62
7
100
AcDbSpline
 70
8
 71
3
 72
8
 73
4
 74
0
 40
0
 40
0
 40
0
 40
0
 40
1
 40
1
 40
1
 40
1
 10
289.553260
 20
308.666544
 30
0.0
 10
289.551525
 20
309.431511
 30
0.0
 10
289.549616
 20
310.196475
 30
0.0
 10
289.547806
 20
310.961439
 30
0.0
  0
SPLINE
  5
1fd
100
AcDbEntity
  8
0
 62
7
100
AcDbSpline
 70
8
 71
3
 72
8
 73
4
 74
0
 40
0
 40
0
 40
0
 40
0
 40
1
 40
1
 40
1
 40
1
 10
289.547806
 20
310.961439
 30
0.0
 10
287.949898
 20
310.982093
 30
0.0
 10
286.352014
 20
311.002743
 30
0.0
 10
284.754105
 20
311.023396
 30
0.0
  0
SPLINE
  5
1fe
100
AcDbEntity
  8
0
 62
7
100
AcDbSpline
 70
8
 71
3
 72
8
 73
4
 74
0
 40
0
 40
0
 40
0
 40
0
 40
1
 40
1
 40
1
 40
1
 10
284.754105
 20
311.023396
 30
0.0
 10
284.832469
 20
277.410511
 30
0.0
 10
284.992914
 20
243.797811
 30
0.0
 10
285.193025
 20
210.185385
 30
0.0
  0
SPLINE
  5
1ff
100
AcDbEntity
  8
0
 62
7
100
AcDbSpline
 70
8
 71
3
 72
8
 73
4
 74
0
 40
0
 40
0
 40
0
 40
0
 40
1
 40
1
 40
1
 40
1
 10
285.193025
 20
210.185385
 30
0.0
 10
285.336935
 20
201.960835
 30
0.0
 10
286.086481
 20
193.750884
 30
0.0
 10
285.997681
 20
185.521730
 30
0.0
  0
SPLINE
  5
200
100
AcDbEntity
  8
0
 62
7
100
AcDbSpline
 70
8
 71
3
 72
8
 73
4
 74
0
 40
0
 40
0
 40
0
 40
0
 40
1
 40
1
 40
1
 40
1
 10
285.997681
 20
185.521730
 30
0.0
 10
285.999416
 20
181.633660
 30
0.0
 10
286.021480
 20
177.729764
 30
0.0
 10
285.474225
 20
173.867165
 30
0.0
  0
SPLINE
  5
201
100
AcDbEntity
  8
0
 62
7
100
AcDbSpline
 70
8
 71
3
 72
8
 73
4
 74
0
 40
0
 40
0
 40
0
 40
0
 40
1
 40
1
 40
1
 40
1
 10
285.474225
 20
173.867165
 30
0.0
 10
285.054122
 20
170.835900
 30
0.0
 10
284.387897
 20
167.820434
 30
0.0
 10
283.273383
 20
164.939205
 30
0.0
  0
SPLINE
  5
202
100
AcDbEntity
  8
0
 62
7
100
AcDbSpline
 70
8
 71
3
 72
8
 73
4
 74
0
 40
0
 40
0
 40
0
 40
0
 40
1
 40
1
 40
1
 40
1
 10
283.273383
 20
164.939205
 30
0.0
 10
282.803996
 20
163.727491
 30
0.0
 10
282.230785
 20
162.547249
 30
0.0
 10
281.497006
 20
161.452270
 30
0.0
  0
SPLINE
  5
203
100
AcDbEntity
  8
0
 62
7
100
AcDbSpline
 70
8
 71
3
 72
8
 73
4
 74
0
 40
0
 40
0
 40
0
 40
0
 40
1
 40
1
 40
1
 40
1
 10
281.497006
 20
161.452270
 30
0.0
 10
280.310573
 20
159.646394
 30
0.0
 10
278.859549
 20
158.003863
 30
0.0
 10
277.345483
 20
156.427956
 30
0.0
  0
SPLINE
  5
204
100
AcDbEntity
  8
0
 62
7
100
AcDbSpline
 70
8
 71
3
 72
8
 73
4
 74
0
 40
0
 40
0
 40
0
 40
0
 40
1
 40
1
 40
1
 40
1
 10
277.345483
 20
156.427956
 30
0.0
 10
276.166438
 20
155.259812
 30
0.0
 10
274.780043
 20
154.275651
 30
0.0
 10
273.263572
 20
153.513424
 30
0.0
  0
SPLINE
  5
205
100
AcDbEntity
  8
0
 62
7
100
AcDbSpline
 70
8
 71
3
 72
8
 73
4
 74
0
 40
0
 40
0
 40
0
 40
0
 40
1
 40
1
 40
1
 40
1
 10
273.263572
 20
153.513424
 30
0.0
 10
271.441382
 20
152.535236
 30
0.0
 10
269.569958
 20
151.636492
 30
0.0
 10
267.673123
 20
150.789915
 30
0.0
  0
SPLINE
  5
206
100
AcDbEntity
  8
0
 62
7
100
AcDbSpline
 70
8
 71
3
 72
8
 73
4
 74
0
 40
0
 40
0
 40
0
 40
0
 40
1
 40
1
 40
1
 40
1
 10
267.673123
 20
150.789915
 30
0.0
 10
265.051558
 20
149.734927
 30
0.0
 10
262.319624
 20
148.938801
 30
0.0
 10
259.675375
 20
147.940295
 30
0.0
  0
SPLINE
  5
207
100
AcDbEntity
  8
0
 62
7
100
AcDbSpline
 70
8
 71
3
 72
8
 73
4
 74
0
 40
0
 40
0
 40
0
 40
0
 40
1
 40
1
 40
1
 40
1
 10
259.675375
 20
147.940295
 30
0.0
 10
258.674674
 20
147.613495
 30
0.0
 10
257.645191
 20
147.371515
 30
0.0
 10
256.617791
 20
147.129769
 30
0.0
  0
SPLINE
  5
208
100
AcDbEntity
  8
0
 62
7
100
AcDbSpline
 70
8
 71
3
 72
8
 73
4
 74
0
 40
0
 40
0
 40
0
 40
0
 40
1
 40
1
 40
1
 40
1
 10
256.617791
 20
147.129769
 30
0.0
 10
262.519809
 20
147.007738
 30
0.0
 10
268.401548
 20
146.456771
 30
0.0
 10
274.250737
 20
145.739482
 30
0.0
  0
SPLINE
  5
209
100
AcDbEntity
  8
0
 62
7
100
AcDbSpline
 70
8
 71
3
 72
8
 73
4
 74
0
 40
0
 40
0
 40
0
 40
0
 40
1
 40
1
 40
1
 40
1
 10
274.250737
 20
145.739482
 30
0.0
 10
275.868925
 20
145.504444
 30
0.0
 10
277.454612
 20
145.093414
 30
0.0
 10
279.086830
 20
144.944174
 30
0.0
  0
SPLINE
  5
20a
100
AcDbEntity
  8
0
 62
7
100
AcDbSpline
 70
8
 71
3
 72
8
 73
4
 74
0
 40
0
 40
0
 40
0
 40
0
 40
1
 40
1
 40
1
 40
1
 10
279.086830
 20
144.944174
 30
0.0
 10
281.621877
 20
144.655357
 30
0.0
 10
284.163839
 20
144.415091
 30
0.0
 10
286.708157
 20
144.203699
 30
0.0
  0
SPLINE
  5
20b
100
AcDbEntity
  8
0
 62
7
100
AcDbSpline
 70
8
 71
3
 72
8
 73
4
 74
0
 40
0
 40
0
 40
0
 40
0
 40
1
 40
1
 40
1
 40
1
 10
286.708157
 20
144.203699
 30
0.0
 10
286.738947
 20
144.219546
 30
0.0
 10
286.769712
 20
144.235395
 30
0.0
 10
286.800502
 20
144.251241
 30
0.0
  0
LWPOLYLINE
  5
20c
100
AcDbEntity
  8
0
 62
7
100
AcDbPolyline
 90
1
 70
1
 10
288.286159
 20
126.214806
 30
0.0
  0
SPLINE
  5
20d
100
AcDbEntity
  8
0
 62
7
100
AcDbSpline
 70
8
 71
3
 72
8
 73
4
 74
0
 40
0
 40
0
 40
0
 40
0
 40
1
 40
1
 40
1
 40
1
 10
145.791260
 20
188.258702
 30
0.0
 10
146.258649
 20
196.058281
 30
0.0
 10
146.575722
 20
203.878271
 30
0.0
 10
146.223478
 20
211.687888
 30
0.0
  0
SPLINE
  5
20e
100
AcDbEntity
  8
0
 62
7
100
AcDbSpline
 70
8
 71
3
 72
8
 73
4
 74
0
 40
0
 40
0
 40
0
 40
0
 40
1
 40
1
 40
1
 40
1
 10
146.223478
 20
211.687888
 30
0.0
 10
146.099133
 20
214.876332
 30
0.0
 10
145.947637
 20
218.064590
 30
0.0
 10
145.663192
 20
221.244375
 30
0.0
  0
SPLINE
  5
20f
100
AcDbEntity
  8
0
 62
7
100
AcDbSpline
 70
8
 71
3
 72
8
 73
4
 74
0
 40
0
 40
0
 40
0
 40
0
 40
1
 40
1
 40
1
 40
1
 10
145.663192
 20
221.244375
 30
0.0
 10
145.416437
 20
218.742761
 30
0.0
 10
145.257663
 20
216.234119
 30
0.0
 10
145.177763
 20
213.723262
 30
0.0
  0
SPLINE
  5
210
100
AcDbEntity
  8
0
 62
7
100
AcDbSpline
 70
8
 71
3
 72
8
 73
4
 74
0
 40
0
 40
0
 40
0
 40
0
 40
1
 40
1
 40
1
 40
1
 10
145.177763
 20
213.723262
 30
0.0
 10
144.940570
 20
208.546132
 30
0.0
 10
144.786509
 20
203.357223
 30
0.0
 10
145.092535
 20
198.179582
 30
0.0
  0
SPLINE
  5
211
100
AcDbEntity
  8
0
 62
7
100
AcDbSpline
 70
8
 71
3
 72
8
 73
4
 74
0
 40
0
 40
0
 40
0
 40
0
 40
1
 40
1
 40
1
 40
1
 10
145.092535
 20
198.179582
 30
0.0
 10
145.257351
 20
194.786533
 30
0.0
 10
145.491290
 20
191.396624
 30
0.0
 10
145.776299
 20
188.010479
 30
0.0
  0
SPLINE
  5
212
100
AcDbEntity
  8
0
 62
7
100
AcDbSpline
 70
8
 71
3
 72
8
 73
4
 74
0
 40
0
 40
0
 40
0
 40
0
 40
1
 40
1
 40
1
 40
1
 10
145.776299
 20
188.010479
 30
0.0
 10
145.781287
 20
188.093220
 30
0.0
 10
145.786275
 20
188.175961
 30
0.0
 10
145.791260
 20
188.258702
 30
0.0
  0
LWPOLYLINE
  5
213
100
AcDbEntity
  8
0
 62
7
100
AcDbPolyline
 90
1
 70
1
 10
286.800502
 20
144.251241
 30
0.0
  0
SPLINE
  5
214
100
AcDbEntity
  8
0
 62
7
100
AcDbSpline
 70
8
 71
3
 72
8
 73
4
 74
0
 40
0
 40
0
 40
0
 40
0
 40
1
 40
1
 40
1
 40
1
 10
491.283340
 20
260.076712
 30
0.0
 10
489.828721
 20
260.545628
 30
0.0
 10
488.254736
 20
260.463673
 30
0.0
 10
486.743768
 20
260.339384
 30
0.0
  0
SPLINE
  5
215
100
AcDbEntity
  8
0
 62
7
100
AcDbSpline
 70
8
 71
3
 72
8
 73
4
 74
0
 40
0
 40
0
 40
0
 40
0
 40
1
 40
1
 40
1
 40
1
 10
486.743768
 20
260.339384
 30
0.0
 10
484.925123
 20
260.128304
 30
0.0
 10
483.131096
 20
259.392643
 30
0.0
 10
481.915113
 20
258.089988
 30
0.0
  0
SPLINE
  5
216
100
AcDbEntity
  8
0
 62
7
100
AcDbSpline
 70
8
 71
3
 72
8
 73
4
 74
0
 40
0
 40
0
 40
0
 40
0
 40
1
 40
1
 40
1
 40
1
 10
481.915113
 20
258.089988
 30
0.0
 10
480.594017
 20
256.728617
 30
0.0
 10
479.721484
 20
255.067481
 30
0.0
 10
478.827259
 20
253.450127
 30
0.0
  0
SPLINE
  5
217
100
AcDbEntity
  8
0
 62
7
100
AcDbSpline
 70
8
 71
3
 72
8
 73
4
 74
0
 40
0
 40
0
 40
0
 40
0
 40
1
 40
1
 40
1
 40
1
 10
478.827259
 20
253.450127
 30
0.0
 10
477.054824
 20
250.038044
 30
0.0
 10
475.792036
 20
246.427541
 30
0.0
 10
474.297009
 20
242.908841
 30
0.0
  0
SPLINE
  5
218
100
AcDbEntity
  8
0
 62
7
100
AcDbSpline
 70
8
 71
3
 72
8
 73
4
 74
0
 40
0
 40
0
 40
0
 40
0
 40
1
 40
1
 40
1
 40
1
 10
474.297009
 20
242.908841
 30
0.0
 10
472.672153
 20
238.961193
 30
0.0
 10
470.868109
 20
235.067567
 30
0.0
 10
468.661664
 20
231.366297
 30
0.0
  0
SPLINE
  5
219
100
AcDbEntity
  8
0
 62
7
100
AcDbSpline
 70
8
 71
3
 72
8
 73
4
 74
0
 40
0
 40
0
 40
0
 40
0
 40
1
 40
1
 40
1
 40
1
 10
468.661664
 20
231.366297
 30
0.0
 10
465.432801
 20
225.870515
 30
0.0
 10
461.414974
 20
220.758376
 30
0.0
 10
456.627917
 20
216.339074
 30
0.0
  0
SPLINE
  5
21a
100
AcDbEntity
  8
0
 62
7
100
AcDbSpline
 70
8
 71
3
 72
8
 73
4
 74
0
 40
0
 40
0
 40
0
 40
0
 40
1
 40
1
 40
1
 40
1
 10
456.627917
 20
216.339074
 30
0.0
 10
452.465660
 20
212.473476
 30
0.0
 10
447.765891
 20
209.078542
 30
0.0
 10
442.580770
 20
206.471254
 30
0.0
  0
SPLINE
  5
21b
100
AcDbEntity
  8
0
 62
7
100
AcDbSpline
 70
8
 71
3
 72
8
 73
4
 74
0
 40
0
 40
0
 40
0
 40
0
 40
1
 40
1
 40
1
 40
1
 10
442.580770
 20
206.471254
 30
0.0
 10
436.167122
 20
203.281842
 30
0.0
 10
428.982929
 20
201.429518
 30
0.0
 10
421.711101
 20
201.119556
 30
0.0
  0
SPLINE
  5
21c
100
AcDbEntity
  8
0
 62
7
100
AcDbSpline
 70
8
 71
3
 72
8
 73
4
 74
0
 40
0
 40
0
 40
0
 40
0
 40
1
 40
1
 40
1
 40
1
 10
421.711101
 20
201.119556
 30
0.0
 10
415.729431
 20
200.838750
 30
0.0
 10
409.695204
 20
201.451146
 30
0.0
 10
403.930601
 20
202.962380
 30
0.0
  0
SPLINE
  5
21d
100
AcDbEntity
  8
0
 62
7
100
AcDbSpline
 70
8
 71
3
 72
8
 73
4
 74
0
 40
0
 40
0
 40
0
 40
0
 40
1
 40
1
 40
1
 40
1
 10
403.930601
 20
202.962380
 30
0.0
 10
398.509348
 20
204.397607
 30
0.0
 10
393.351100
 20
206.689650
 30
0.0
 10
388.765294
 20
209.731835
 30
0.0
  0
SPLINE
  5
21e
100
AcDbEntity
  8
0
 62
7
100
AcDbSpline
 70
8
 71
3
 72
8
 73
4
 74
0
 40
0
 40
0
 40
0
 40
0
 40
1
 40
1
 40
1
 40
1
 10
388.765294
 20
209.731835
 30
0.0
 10
380.659161
 20
215.063605
 30
0.0
 10
374.256148
 20
222.475085
 30
0.0
 10
369.969689
 20
230.760606
 30
0.0
  0
SPLINE
  5
21f
100
AcDbEntity
  8
0
 62
7
100
AcDbSpline
 70
8
 71
3
 72
8
 73
4
 74
0
 40
0
 40
0
 40
0
 40
0
 40
1
 40
1
 40
1
 40
1
 10
369.969689
 20
230.760606
 30
0.0
 10
368.746839
 20
233.120490
 30
0.0
 10
367.708258
 20
235.559290
 30
0.0
 10
366.800596
 20
238.037633
 30
0.0
  0
SPLINE
  5
220
100
AcDbEntity
  8
0
 62
7
100
AcDbSpline
 70
8
 71
3
 72
8
 73
4
 74
0
 40
0
 40
0
 40
0
 40
0
 40
1
 40
1
 40
1
 40
1
 10
366.800596
 20
238.037633
 30
0.0
 10
365.050572
 20
242.652876
 30
0.0
 10
363.635743
 20
247.373579
 30
0.0
 10
361.790150
 20
251.957806
 30
0.0
  0
SPLINE
  5
221
100
AcDbEntity
  8
0
 62
7
100
AcDbSpline
 70
8
 71
3
 72
8
 73
4
 74
0
 40
0
 40
0
 40
0
 40
0
 40
1
 40
1
 40
1
 40
1
 10
361.790150
 20
251.957806
 30
0.0
 10
360.742843
 20
254.501088
 30
0.0
 10
359.542230
 20
257.009301
 30
0.0
 10
357.917126
 20
259.284090
 30
0.0
  0
SPLINE
  5
222
100
AcDbEntity
  8
0
 62
7
100
AcDbSpline
 70
8
 71
3
 72
8
 73
4
 74
0
 40
0
 40
0
 40
0
 40
0
 40
1
 40
1
 40
1
 40
1
 10
357.917126
 20
259.284090
 30
0.0
 10
357.235605
 20
260.174952
 30
0.0
 10
356.323308
 20
260.981036
 30
0.0
 10
355.169822
 20
261.283799
 30
0.0
  0
SPLINE
  5
223
100
AcDbEntity
  8
0
 62
7
100
AcDbSpline
 70
8
 71
3
 72
8
 73
4
 74
0
 40
0
 40
0
 40
0
 40
0
 40
1
 40
1
 40
1
 40
1
 10
355.169822
 20
261.283799
 30
0.0
 10
354.081437
 20
261.596151
 30
0.0
 10
352.895078
 20
261.683508
 30
0.0
 10
351.776572
 20
261.452019
 30
0.0
  0
SPLINE
  5
224
100
AcDbEntity
  8
0
 62
7
100
AcDbSpline
 70
8
 71
3
 72
8
 73
4
 74
0
 40
0
 40
0
 40
0
 40
0
 40
1
 40
1
 40
1
 40
1
 10
351.776572
 20
261.452019
 30
0.0
 10
350.753609
 20
261.212503
 30
0.0
 10
349.815009
 20
260.736576
 30
0.0
 10
348.899662
 20
260.258220
 30
0.0
  0
SPLINE
  5
225
100
AcDbEntity
  8
0
 62
7
100
AcDbSpline
 70
8
 71
3
 72
8
 73
4
 74
0
 40
0
 40
0
 40
0
 40
0
 40
1
 40
1
 40
1
 40
1
 10
348.899662
 20
260.258220
 30
0.0
 10
348.909827
 20
259.329341
 30
0.0
 10
348.898423
 20
258.400007
 30
0.0
 10
348.902910
 20
257.470922
 30
0.0
  0
SPLINE
  5
226
100
AcDbEntity
  8
0
 62
7
100
AcDbSpline
 70
8
 71
3
 72
8
 73
4
 74
0
 40
0
 40
0
 40
0
 40
0
 40
1
 40
1
 40
1
 40
1
 10
348.902910
 20
257.470922
 30
0.0
 10
348.902910
 20
235.706742
 30
0.0
 10
348.902910
 20
213.942564
 30
0.0
 10
348.902910
 20
192.178387
 30
0.0
  0
SPLINE
  5
227
100
AcDbEntity
  8
0
 62
7
100
AcDbSpline
 70
8
 71
3
 72
8
 73
4
 74
0
 40
0
 40
0
 40
0
 40
0
 40
1
 40
1
 40
1
 40
1
 10
348.902910
 20
192.178387
 30
0.0
 10
396.113080
 20
192.058951
 30
0.0
 10
443.323251
 20
191.939515
 30
0.0
 10
490.533422
 20
191.820081
 30
0.0
  0
SPLINE
  5
228
100
AcDbEntity
  8
0
 62
7
100
AcDbSpline
 70
8
 71
3
 72
8
 73
4
 74
0
 40
0
 40
0
 40
0
 40
0
 40
1
 40
1
 40
1
 40
1
 10
490.533422
 20
191.820081
 30
0.0
 10
490.783386
 20
214.572289
 30
0.0
 10
491.033375
 20
237.324500
 30
0.0
 10
491.283340
 20
260.076712
 30
0.0
  0
LWPOLYLINE
  5
229
100
AcDbEntity
  8
0
 62
7
100
AcDbPolyline
 90
1
 70
1
 10
145.791260
 20
188.258702
 30
0.0
  0
SPLINE
  5
22a
100
AcDbEntity
  8
0
 62
7
100
AcDbSpline
 70
8
 71
3
 72
8
 73
4
 74
0
 40
0
 40
0
 40
0
 40
0
 40
1
 40
1
 40
1
 40
1
 10
150.687954
 20
261.067092
 30
0.0
 10
149.303667
 20
264.324476
 30
0.0
 10
148.965995
 20
267.927591
 30
0.0
 10
149.540534
 20
271.378266
 30
0.0
  0
SPLINE
  5
22b
100
AcDbEntity
  8
0
 62
7
100
AcDbSpline
 70
8
 71
3
 72
8
 73
4
 74
0
 40
0
 40
0
 40
0
 40
0
 40
1
 40
1
 40
1
 40
1
 10
149.540534
 20
271.378266
 30
0.0
 10
150.111100
 20
275.109959
 30
0.0
 10
151.593285
 20
278.666965
 30
0.0
 10
153.411947
 20
282.018365
 30
0.0
  0
SPLINE
  5
22c
100
AcDbEntity
  8
0
 62
7
100
AcDbSpline
 70
8
 71
3
 72
8
 73
4
 74
0
 40
0
 40
0
 40
0
 40
0
 40
1
 40
1
 40
1
 40
1
 10
153.411947
 20
282.018365
 30
0.0
 10
154.825083
 20
284.683425
 30
0.0
 10
156.291051
 20
287.367302
 30
0.0
 10
157.030391
 20
290.272540
 30
0.0
  0
SPLINE
  5
22d
100
AcDbEntity
  8
0
 62
7
100
AcDbSpline
 70
8
 71
3
 72
8
 73
4
 74
0
 40
0
 40
0
 40
0
 40
0
 40
1
 40
1
 40
1
 40
1
 10
157.030391
 20
290.272540
 30
0.0
 10
157.146657
 20
290.726839
 30
0.0
 10
157.215387
 20
291.211615
 30
0.0
 10
157.039244
 20
291.662402
 30
0.0
  0
SPLINE
  5
22e
100
AcDbEntity
  8
0
 62
7
100
AcDbSpline
 70
8
 71
3
 72
8
 73
4
 74
0
 40
0
 40
0
 40
0
 40
0
 40
1
 40
1
 40
1
 40
1
 10
157.039244
 20
291.662402
 30
0.0
 10
156.818518
 20
292.383660
 30
0.0
 10
156.519249
 20
293.085624
 30
0.0
 10
156.230279
 20
293.786316
 30
0.0
  0
SPLINE
  5
22f
100
AcDbEntity
  8
0
 62
7
100
AcDbSpline
 70
8
 71
3
 72
8
 73
4
 74
0
 40
0
 40
0
 40
0
 40
0
 40
1
 40
1
 40
1
 40
1
 10
156.230279
 20
293.786316
 30
0.0
 10
155.269819
 20
295.932116
 30
0.0
 10
154.047898
 20
297.996494
 30
0.0
 10
153.440719
 20
300.266258
 30
0.0
  0
SPLINE
  5
230
100
AcDbEntity
  8
0
 62
7
100
AcDbSpline
 70
8
 71
3
 72
8
 73
4
 74
0
 40
0
 40
0
 40
0
 40
0
 40
1
 40
1
 40
1
 40
1
 10
153.440719
 20
300.266258
 30
0.0
 10
152.473900
 20
303.518103
 30
0.0
 10
152.325017
 20
306.993612
 30
0.0
 10
153.112890
 20
310.289275
 30
0.0
  0
SPLINE
  5
231
100
AcDbEntity
  8
0
 62
7
100
AcDbSpline
 70
8
 71
3
 72
8
 73
4
 74
0
 40
0
 40
0
 40
0
 40
0
 40
1
 40
1
 40
1
 40
1
 10
153.112890
 20
310.289275
 30
0.0
 10
152.768356
 20
310.263165
 30
0.0
 10
152.421121
 20
310.292852
 30
0.0
 10
152.074393
 20
310.282315
 30
0.0
  0
SPLINE
  5
232
100
AcDbEntity
  8
0
 62
7
100
AcDbSpline
 70
8
 71
3
 72
8
 73
4
 74
0
 40
0
 40
0
 40
0
 40
0
 40
1
 40
1
 40
1
 40
1
 10
152.074393
 20
310.282315
 30
0.0
 10
147.444281
 20
310.282315
 30
0.0
 10
142.814166
 20
310.282315
 30
0.0
 10
138.184054
 20
310.282315
 30
0.0
  0
SPLINE
  5
233
100
AcDbEntity
  8
0
 62
7
100
AcDbSpline
 70
8
 71
3
 72
8
 73
4
 74
0
 40
0
 40
0
 40
0
 40
0
 40
1
 40
1
 40
1
 40
1
 10
138.184054
 20
310.282315
 30
0.0
 10
139.203812
 20
305.870438
 30
0.0
 10
138.687305
 20
301.166940
 30
0.0
 10
136.725400
 20
297.037372
 30
0.0
  0
SPLINE
  5
234
100
AcDbEntity
  8
0
 62
7
100
AcDbSpline
 70
8
 71
3
 72
8
 73
4
 74
0
 40
0
 40
0
 40
0
 40
0
 40
1
 40
1
 40
1
 40
1
 10
136.725400
 20
297.037372
 30
0.0
 10
135.835757
 20
295.079108
 30
0.0
 10
134.733768
 20
293.187814
 30
0.0
 10
134.174721
 20
291.116519
 30
0.0
  0
SPLINE
  5
235
100
AcDbEntity
  8
0
 62
7
100
AcDbSpline
 70
8
 71
3
 72
8
 73
4
 74
0
 40
0
 40
0
 40
0
 40
0
 40
1
 40
1
 40
1
 40
1
 10
134.174721
 20
291.116519
 30
0.0
 10
134.125001
 20
290.722644
 30
0.0
 10
134.271120
 20
290.337611
 30
0.0
 10
134.348377
 20
289.954951
 30
0.0
  0
SPLINE
  5
236
100
AcDbEntity
  8
0
 62
7
100
AcDbSpline
 70
8
 71
3
 72
8
 73
4
 74
0
 40
0
 40
0
 40
0
 40
0
 40
1
 40
1
 40
1
 40
1
 10
134.348377
 20
289.954951
 30
0.0
 10
134.620956
 20
288.952245
 30
0.0
 10
135.026571
 20
287.983640
 30
0.0
 10
135.396604
 20
287.007543
 30
0.0
  0
SPLINE
  5
237
100
AcDbEntity
  8
0
 62
7
100
AcDbSpline
 70
8
 71
3
 72
8
 73
4
 74
0
 40
0
 40
0
 40
0
 40
0
 40
1
 40
1
 40
1
 40
1
 10
135.396604
 20
287.007543
 30
0.0
 10
136.936996
 20
283.340335
 30
0.0
 10
139.198194
 20
279.956753
 30
0.0
 10
140.479846
 20
276.191592
 30
0.0
  0
SPLINE
  5
238
100
AcDbEntity
  8
0
 62
7
100
AcDbSpline
 70
8
 71
3
 72
8
 73
4
 74
0
 40
0
 40
0
 40
0
 40
0
 40
1
 40
1
 40
1
 40
1
 10
140.479846
 20
276.191592
 30
0.0
 10
141.616509
 20
272.987837
 30
0.0
 10
142.261451
 20
269.586638
 30
0.0
 10
141.937669
 20
266.209544
 30
0.0
  0
SPLINE
  5
239
100
AcDbEntity
  8
0
 62
7
100
AcDbSpline
 70
8
 71
3
 72
8
 73
4
 74
0
 40
0
 40
0
 40
0
 40
0
 40
1
 40
1
 40
1
 40
1
 10
141.937669
 20
266.209544
 30
0.0
 10
141.761105
 20
264.449356
 30
0.0
 10
141.318515
 20
262.711510
 30
0.0
 10
140.617947
 20
261.067092
 30
0.0
  0
SPLINE
  5
23a
100
AcDbEntity
  8
0
 62
7
100
AcDbSpline
 70
8
 71
3
 72
8
 73
4
 74
0
 40
0
 40
0
 40
0
 40
0
 40
1
 40
1
 40
1
 40
1
 10
140.617947
 20
261.067092
 30
0.0
 10
143.974616
 20
261.067092
 30
0.0
 10
147.331285
 20
261.067092
 30
0.0
 10
150.687954
 20
261.067092
 30
0.0
  0
LWPOLYLINE
  5
23b
100
AcDbEntity
  8
0
 62
7
100
AcDbPolyline
 90
1
 70
1
 10
491.283340
 20
260.076712
 30
0.0
  0
SPLINE
  5
23c
100
AcDbEntity
  8
0
 62
7
100
AcDbSpline
 70
8
 71
3
 72
8
 73
4
 74
0
 40
0
 40
0
 40
0
 40
0
 40
1
 40
1
 40
1
 40
1
 10
454.048868
 20
341.707755
 30
0.0
 10
347.070258
 20
341.706375
 30
0.0
 10
242.069748
 20
341.707065
 30
0.0
 10
142.677215
 20
341.707065
 30
0.0
  0
SPLINE
  5
23d
100
AcDbEntity
  8
0
 62
7
100
AcDbSpline
 70
8
 71
3
 72
8
 73
4
 74
0
 40
0
 40
0
 40
0
 40
0
 40
1
 40
1
 40
1
 40
1
 10
142.677215
 20
341.707065
 30
0.0
 10
124.001647
 20
341.553058
 30
0.0
 10
108.713750
 20
335.424021
 30
0.0
 10
96.814220
 20
323.317885
 30
0.0
  0
SPLINE
  5
23e
100
AcDbEntity
  8
0
 62
7
100
AcDbSpline
 70
8
 71
3
 72
8
 73
4
 74
0
 40
0
 40
0
 40
0
 40
0
 40
1
 40
1
 40
1
 40
1
 10
96.814220
 20
323.317885
 30
0.0
 10
77.807993
 20
304.009488
 30
0.0
 10
68.305153
 20
271.828825
 30
0.0
 10
68.305153
 20
226.775898
 30
0.0
  0
SPLINE
  5
23f
100
AcDbEntity
  8
0
 62
7
100
AcDbSpline
 70
8
 71
3
 72
8
 73
4
 74
0
 40
0
 40
0
 40
0
 40
0
 40
1
 40
1
 40
1
 40
1
 10
68.305153
 20
226.775898
 30
0.0
 10
68.305153
 20
205.322199
 30
0.0
 10
70.618669
 20
186.396982
 30
0.0
 10
75.246322
 20
170.000221
 30
0.0
  0
SPLINE
  5
240
100
AcDbEntity
  8
0
 62
7
100
AcDbSpline
 70
8
 71
3
 72
8
 73
4
 74
0
 40
0
 40
0
 40
0
 40
0
 40
1
 40
1
 40
1
 40
1
 10
75.246322
 20
170.000221
 30
0.0
 10
86.319504
 20
131.536735
 30
0.0
 10
108.796526
 20
112.151534
 30
0.0
 10
142.677215
 20
111.845082
 30
0.0
  0
SPLINE
  5
241
100
AcDbEntity
  8
0
 62
7
100
AcDbSpline
 70
8
 71
3
 72
8
 73
4
 74
0
 40
0
 40
0
 40
0
 40
0
 40
1
 40
1
 40
1
 40
1
 10
142.677215
 20
111.845082
 30
0.0
 10
250.728118
 20
111.845082
 30
0.0
 10
343.097947
 20
111.845082
 30
0.0
 10
454.048868
 20
111.845082
 30
0.0
  0
LWPOLYLINE
  5
242
100
AcDbEntity
  8
0
 62
7
100
AcDbPolyline
 90
1
 70
1
 10
150.687954
 20
261.067092
 30
0.0
  0
SPLINE
  5
243
100
AcDbEntity
  8
0
 62
7
100
AcDbSpline
 70
8
 71
3
 72
8
 73
4
 74
0
 40
0
 40
0
 40
0
 40
0
 40
1
 40
1
 40
1
 40
1
 10
454.545648
 20
111.845082
 30
0.0
 10
485.285754
 20
112.304810
 30
0.0
 10
506.606811
 20
128.778478
 30
0.0
 10
518.505250
 20
161.265615
 30
0.0
  0
LWPOLYLINE
  5
244
100
AcDbEntity
  8
0
 62
7
100
AcDbPolyline
 90
2
 70
0
 10
454.048868
 20
111.845082
 30
0.0
 10
454.545648
 20
111.845082
 30
0.0
  0
SPLINE
  5
245
100
AcDbEntity
  8
0
 62
7
100
AcDbSpline
 70
8
 71
3
 72
8
 73
4
 74
0
 40
0
 40
0
 40
0
 40
0
 40
1
 40
1
 40
1
 40
1
 10
528.421302
 20
111.845082
 30
0.0
 10
528.421302
 20
187.871316
 30
0.0
 10
528.421302
 20
270.275740
 30
0.0
 10
528.421302
 20
341.707755
 30
0.0
  0
LWPOLYLINE
  5
246
100
AcDbEntity
  8
0
 62
7
100
AcDbPolyline
 90
3
 70
0
 10
518.505250
 20
161.265615
 30
0.0
 10
518.505250
 20
111.845082
 30
0.0
 10
528.421302
 20
111.845082
 30
0.0
  0
SPLINE
  5
247
100
AcDbEntity
  8
0
 62
7
100
AcDbSpline
 70
8
 71
3
 72
8
 73
4
 74
0
 40
0
 40
0
 40
0
 40
0
 40
1
 40
1
 40
1
 40
1
 10
518.505250
 20
292.287222
 30
0.0
 10
506.606811
 20
324.927861
 30
0.0
 10
485.119334
 20
341.401464
 30
0.0
 10
454.048868
 20
341.707755
 30
0.0
  0
LWPOLYLINE
  5
248
100
AcDbEntity
  8
0
 62
7
100
AcDbPolyline
 90
3
 70
0
 10
528.421302
 20
341.707755
 30
0.0
 10
518.505250
 20
341.707755
 30
0.0
 10
518.505250
 20
292.287222
 30
0.0
  0
SPLINE
  5
249
100
AcDbEntity
  8
0
 62
7
100
AcDbSpline
 70
8
 71
3
 72
8
 73
4
 74
0
 40
0
 40
0
 40
0
 40
0
 40
1
 40
1
 40
1
 40
1
 10
454.048868
 20
332.513165
 30
0.0
 10
470.244822
 20
330.367956
 30
0.0
 10
483.467406
 20
324.774267
 30
0.0
 10
493.714092
 20
315.733133
 30
0.0
  0
SPLINE
  5
24a
100
AcDbEntity
  8
0
 62
7
100
AcDbSpline
 70
8
 71
3
 72
8
 73
4
 74
0
 40
0
 40
0
 40
0
 40
0
 40
1
 40
1
 40
1
 40
1
 10
493.714092
 20
315.733133
 30
0.0
 10
510.240407
 20
301.175038
 30
0.0
 10
518.505250
 20
271.522925
 30
0.0
 10
518.505250
 20
226.776242
 30
0.0
  0
SPLINE
  5
24b
100
AcDbEntity
  8
0
 62
7
100
AcDbSpline
 70
8
 71
3
 72
8
 73
4
 74
0
 40
0
 40
0
 40
0
 40
0
 40
1
 40
1
 40
1
 40
1
 10
518.505250
 20
226.776242
 30
0.0
 10
518.505250
 20
206.395126
 30
0.0
 10
516.025884
 20
187.546429
 30
0.0
 10
511.067697
 20
170.230221
 30
0.0
  0
SPLINE
  5
24c
100
AcDbEntity
  8
0
 62
7
100
AcDbSpline
 70
8
 71
3
 72
8
 73
4
 74
0
 40
0
 40
0
 40
0
 40
0
 40
1
 40
1
 40
1
 40
1
 10
511.067697
 20
170.230221
 30
0.0
 10
502.472765
 20
139.581905
 30
0.0
 10
483.467555
 20
123.185042
 30
0.0
 10
454.048868
 20
121.039672
 30
0.0
  0
SPLINE
  5
24d
100
AcDbEntity
  8
0
 62
7
100
AcDbSpline
 70
8
 71
3
 72
8
 73
4
 74
0
 40
0
 40
0
 40
0
 40
0
 40
1
 40
1
 40
1
 40
1
 10
454.048868
 20
121.039672
 30
0.0
 10
350.730083
 20
121.039672
 30
0.0
 10
235.232774
 20
121.039672
 30
0.0
 10
141.189774
 20
121.039672
 30
0.0
  0
SPLINE
  5
24e
100
AcDbEntity
  8
0
 62
7
100
AcDbSpline
 70
8
 71
3
 72
8
 73
4
 74
0
 40
0
 40
0
 40
0
 40
0
 40
1
 40
1
 40
1
 40
1
 10
141.189774
 20
121.039672
 30
0.0
 10
135.901177
 20
121.039672
 30
0.0
 10
131.025369
 20
121.729258
 30
0.0
 10
126.563045
 20
123.108429
 30
0.0
  0
SPLINE
  5
24f
100
AcDbEntity
  8
0
 62
7
100
AcDbSpline
 70
8
 71
3
 72
8
 73
4
 74
0
 40
0
 40
0
 40
0
 40
0
 40
1
 40
1
 40
1
 40
1
 10
126.563045
 20
123.108429
 30
0.0
 10
117.473044
 20
125.560319
 30
0.0
 10
109.622924
 20
130.463790
 30
0.0
 10
103.011991
 20
137.819359
 30
0.0
  0
SPLINE
  5
250
100
AcDbEntity
  8
0
 62
7
100
AcDbSpline
 70
8
 71
3
 72
8
 73
4
 74
0
 40
0
 40
0
 40
0
 40
0
 40
1
 40
1
 40
1
 40
1
 10
103.011991
 20
137.819359
 30
0.0
 10
86.484833
 20
156.208316
 30
0.0
 10
78.221205
 20
185.860507
 30
0.0
 10
78.221205
 20
226.775898
 30
0.0
  0
SPLINE
  5
251
100
AcDbEntity
  8
0
 62
7
100
AcDbSpline
 70
8
 71
3
 72
8
 73
4
 74
0
 40
0
 40
0
 40
0
 40
0
 40
1
 40
1
 40
1
 40
1
 10
78.221205
 20
226.775898
 30
0.0
 10
78.221205
 20
252.060727
 30
0.0
 10
80.700249
 20
270.909401
 30
0.0
 10
85.658411
 20
283.321942
 30
0.0
  0
SPLINE
  5
252
100
AcDbEntity
  8
0
 62
7
100
AcDbSpline
 70
8
 71
3
 72
8
 73
4
 74
0
 40
0
 40
0
 40
0
 40
0
 40
1
 40
1
 40
1
 40
1
 10
85.658411
 20
283.321942
 30
0.0
 10
98.219109
 20
315.502604
 30
0.0
 10
117.225360
 20
331.899456
 30
0.0
 10
142.677215
 20
332.512498
 30
0.0
  0
SPLINE
  5
253
100
AcDbEntity
  8
0
 62
7
100
AcDbSpline
 70
8
 71
3
 72
8
 73
4
 74
0
 40
0
 40
0
 40
0
 40
0
 40
1
 40
1
 40
1
 40
1
 10
142.677215
 20
332.512498
 30
0.0
 10
249.485287
 20
332.512038
 30
0.0
 10
352.625703
 20
332.513188
 30
0.0
 10
454.048868
 20
332.513188
 30
0.0
  0
LWPOLYLINE
  5
254
100
AcDbEntity
  8
0
 62
7
100
AcDbPolyline
 90
1
 70
1
 10
454.048868
 20
341.707755
 30
0.0
  0
SPLINE
  5
255
100
AcDbEntity
  8
0
 62
7
100
AcDbSpline
 70
8
 71
3
 72
8
 73
4
 74
0
 40
0
 40
0
 40
0
 40
0
 40
1
 40
1
 40
1
 40
1
 10
124.514169
 20
322.664342
 30
0.0
 10
123.132584
 20
322.664342
 30
0.0
 10
122.027292
 20
322.088630
 30
0.0
 10
121.198291
 20
320.937022
 30
0.0
  0
SPLINE
  5
256
100
AcDbEntity
  8
0
 62
7
100
AcDbSpline
 70
8
 71
3
 72
8
 73
4
 74
0
 40
0
 40
0
 40
0
 40
0
 40
1
 40
1
 40
1
 40
1
 10
121.198291
 20
320.937022
 30
0.0
 10
120.645706
 20
320.168364
 30
0.0
 10
120.369613
 20
319.463010
 30
0.0
 10
120.369613
 20
318.821465
 30
0.0
  0
SPLINE
  5
257
100
AcDbEntity
  8
0
 62
7
100
AcDbSpline
 70
8
 71
3
 72
8
 73
4
 74
0
 40
0
 40
0
 40
0
 40
0
 40
1
 40
1
 40
1
 40
1
 10
120.369613
 20
318.821465
 30
0.0
 10
120.369613
 20
318.438285
 30
0.0
 10
120.507523
 20
317.990675
 30
0.0
 10
120.783939
 20
317.478313
 30
0.0
  0
SPLINE
  5
258
100
AcDbEntity
  8
0
 62
7
100
AcDbSpline
 70
8
 71
3
 72
8
 73
4
 74
0
 40
0
 40
0
 40
0
 40
0
 40
1
 40
1
 40
1
 40
1
 10
120.783939
 20
317.478313
 30
0.0
 10
121.336524
 20
315.940997
 30
0.0
 10
122.027415
 20
314.435540
 30
0.0
 10
122.856416
 20
312.961665
 30
0.0
  0
SPLINE
  5
259
100
AcDbEntity
  8
0
 62
7
100
AcDbSpline
 70
8
 71
3
 72
8
 73
4
 74
0
 40
0
 40
0
 40
0
 40
0
 40
1
 40
1
 40
1
 40
1
 10
122.856416
 20
312.961665
 30
0.0
 10
123.685417
 20
311.488021
 30
0.0
 10
124.306671
 20
310.270948
 30
0.0
 10
124.721172
 20
309.311045
 30
0.0
  0
SPLINE
  5
25a
100
AcDbEntity
  8
0
 62
7
100
AcDbSpline
 70
8
 71
3
 72
8
 73
4
 74
0
 40
0
 40
0
 40
0
 40
0
 40
1
 40
1
 40
1
 40
1
 10
124.721172
 20
309.311045
 30
0.0
 10
125.135672
 20
308.350889
 30
0.0
 10
125.342872
 20
307.165560
 30
0.0
 10
125.342872
 20
305.755358
 30
0.0
  0
LWPOLYLINE
  5
25b
100
AcDbEntity
  8
0
 62
7
100
AcDbPolyline
 90
1
 70
1
 10
454.048868
 20
332.513188
 30
0.0
  0
SPLINE
  5
25c
100
AcDbEntity
  8
0
 62
7
100
AcDbSpline
 70
8
 71
3
 72
8
 73
4
 74
0
 40
0
 40
0
 40
0
 40
0
 40
1
 40
1
 40
1
 40
1
 10
125.342872
 20
305.565124
 30
0.0
 10
125.342872
 20
304.284104
 30
0.0
 10
124.583087
 20
302.169650
 30
0.0
 10
123.063418
 20
299.222131
 30
0.0
  0
SPLINE
  5
25d
100
AcDbEntity
  8
0
 62
7
100
AcDbSpline
 70
8
 71
3
 72
8
 73
4
 74
0
 40
0
 40
0
 40
0
 40
0
 40
1
 40
1
 40
1
 40
1
 10
123.063418
 20
299.222131
 30
0.0
 10
121.543749
 20
296.274636
 30
0.0
 10
120.783939
 20
293.648142
 30
0.0
 10
120.783939
 20
291.342420
 30
0.0
  0
LWPOLYLINE
  5
25e
100
AcDbEntity
  8
0
 62
7
100
AcDbPolyline
 90
2
 70
0
 10
125.342872
 20
305.755358
 30
0.0
 10
125.342872
 20
305.565124
 30
0.0
  0
SPLINE
  5
25f
100
AcDbEntity
  8
0
 62
7
100
AcDbSpline
 70
8
 71
3
 72
8
 73
4
 74
0
 40
0
 40
0
 40
0
 40
0
 40
1
 40
1
 40
1
 40
1
 10
120.783939
 20
289.998924
 30
0.0
 10
121.199431
 20
286.539066
 30
0.0
 10
122.616021
 20
282.695384
 30
0.0
 10
125.033113
 20
278.468225
 30
0.0
  0
SPLINE
  5
260
100
AcDbEntity
  8
0
 62
7
100
AcDbSpline
 70
8
 71
3
 72
8
 73
4
 74
0
 40
0
 40
0
 40
0
 40
0
 40
1
 40
1
 40
1
 40
1
 10
125.033113
 20
278.468225
 30
0.0
 10
127.450205
 20
274.240858
 30
0.0
 10
128.658751
 20
270.781551
 30
0.0
 10
128.658751
 20
268.090099
 30
0.0
  0
LWPOLYLINE
  5
261
100
AcDbEntity
  8
0
 62
7
100
AcDbPolyline
 90
2
 70
0
 10
120.783939
 20
291.342420
 30
0.0
 10
120.783939
 20
289.998924
 30
0.0
  0
SPLINE
  5
262
100
AcDbEntity
  8
0
 62
7
100
AcDbSpline
 70
8
 71
3
 72
8
 73
4
 74
0
 40
0
 40
0
 40
0
 40
0
 40
1
 40
1
 40
1
 40
1
 10
128.658751
 20
267.515329
 30
0.0
 10
128.521906
 20
265.592764
 30
0.0
 10
127.244070
 20
263.286330
 30
0.0
 10
124.825763
 20
260.596257
 30
0.0
  0
SPLINE
  5
263
100
AcDbEntity
  8
0
 62
7
100
AcDbSpline
 70
8
 71
3
 72
8
 73
4
 74
0
 40
0
 40
0
 40
0
 40
0
 40
1
 40
1
 40
1
 40
1
 10
124.825763
 20
260.596257
 30
0.0
 10
122.407407
 20
257.906183
 30
0.0
 10
120.715319
 20
255.857470
 30
0.0
 10
119.749721
 20
254.449589
 30
0.0
  0
SPLINE
  5
264
100
AcDbEntity
  8
0
 62
7
100
AcDbSpline
 70
8
 71
3
 72
8
 73
4
 74
0
 40
0
 40
0
 40
0
 40
0
 40
1
 40
1
 40
1
 40
1
 10
119.749721
 20
254.449589
 30
0.0
 10
119.333982
 20
253.680931
 30
0.0
 10
119.125839
 20
253.040237
 30
0.0
 10
119.125839
 20
252.527622
 30
0.0
  0
SPLINE
  5
265
100
AcDbEntity
  8
0
 62
7
100
AcDbSpline
 70
8
 71
3
 72
8
 73
4
 74
0
 40
0
 40
0
 40
0
 40
0
 40
1
 40
1
 40
1
 40
1
 10
119.125839
 20
252.527622
 30
0.0
 10
119.125839
 20
251.759194
 30
0.0
 10
119.333982
 20
251.117535
 30
0.0
 10
119.749721
 20
250.602644
 30
0.0
  0
SPLINE
  5
266
100
AcDbEntity
  8
0
 62
7
100
AcDbSpline
 70
8
 71
3
 72
8
 73
4
 74
0
 40
0
 40
0
 40
0
 40
0
 40
1
 40
1
 40
1
 40
1
 10
119.749721
 20
250.602644
 30
0.0
 10
120.578474
 20
249.321624
 30
0.0
 10
121.752338
 20
248.681367
 30
0.0
 10
123.270768
 20
248.681367
 30
0.0
  0
LWPOLYLINE
  5
267
100
AcDbEntity
  8
0
 62
7
100
AcDbPolyline
 90
2
 70
0
 10
128.658751
 20
268.090099
 30
0.0
 10
128.658751
 20
267.515329
 30
0.0
  0
SPLINE
  5
268
100
AcDbEntity
  8
0
 62
7
100
AcDbSpline
 70
8
 71
3
 72
8
 73
4
 74
0
 40
0
 40
0
 40
0
 40
0
 40
1
 40
1
 40
1
 40
1
 10
138.815173
 20
248.681367
 30
0.0
 10
138.123017
 20
247.273463
 30
0.0
 10
137.500845
 20
245.896544
 30
0.0
 10
136.948261
 20
244.550933
 30
0.0
  0
SPLINE
  5
269
100
AcDbEntity
  8
0
 62
7
100
AcDbSpline
 70
8
 71
3
 72
8
 73
4
 74
0
 40
0
 40
0
 40
0
 40
0
 40
1
 40
1
 40
1
 40
1
 10
136.948261
 20
244.550933
 30
0.0
 10
136.395429
 20
243.205321
 30
0.0
 10
135.911985
 20
242.020199
 30
0.0
 10
135.497485
 20
240.995245
 30
0.0
  0
SPLINE
  5
26a
100
AcDbEntity
  8
0
 62
7
100
AcDbSpline
 70
8
 71
3
 72
8
 73
4
 74
0
 40
0
 40
0
 40
0
 40
0
 40
1
 40
1
 40
1
 40
1
 10
135.497485
 20
240.995245
 30
0.0
 10
135.082985
 20
239.970521
 30
0.0
 10
134.703514
 20
238.721819
 30
0.0
 10
134.358675
 20
237.249347
 30
0.0
  0
SPLINE
  5
26b
100
AcDbEntity
  8
0
 62
7
100
AcDbSpline
 70
8
 71
3
 72
8
 73
4
 74
0
 40
0
 40
0
 40
0
 40
0
 40
1
 40
1
 40
1
 40
1
 10
134.358675
 20
237.249347
 30
0.0
 10
134.014085
 20
235.776599
 30
0.0
 10
133.772524
 20
234.623888
 30
0.0
 10
133.634192
 20
233.790638
 30
0.0
  0
SPLINE
  5
26c
100
AcDbEntity
  8
0
 62
7
100
AcDbSpline
 70
8
 71
3
 72
8
 73
4
 74
0
 40
0
 40
0
 40
0
 40
0
 40
1
 40
1
 40
1
 40
1
 10
133.634192
 20
233.790638
 30
0.0
 10
133.496108
 20
232.957389
 30
0.0
 10
133.322995
 20
231.643821
 30
0.0
 10
133.115249
 20
229.850415
 30
0.0
  0
SPLINE
  5
26d
100
AcDbEntity
  8
0
 62
7
100
AcDbSpline
 70
8
 71
3
 72
8
 73
4
 74
0
 40
0
 40
0
 40
0
 40
0
 40
1
 40
1
 40
1
 40
1
 10
133.115249
 20
229.850415
 30
0.0
 10
132.907255
 20
228.057033
 30
0.0
 10
132.769320
 20
226.807688
 30
0.0
 10
132.700897
 20
226.102494
 30
0.0
  0
SPLINE
  5
26e
100
AcDbEntity
  8
0
 62
7
100
AcDbSpline
 70
8
 71
3
 72
8
 73
4
 74
0
 40
0
 40
0
 40
0
 40
0
 40
1
 40
1
 40
1
 40
1
 10
132.700897
 20
226.102494
 30
0.0
 10
132.632475
 20
225.397485
 30
0.0
 10
132.494564
 20
223.956136
 30
0.0
 10
132.286570
 20
221.778448
 30
0.0
  0
SPLINE
  5
26f
100
AcDbEntity
  8
0
 62
7
100
AcDbSpline
 70
8
 71
3
 72
8
 73
4
 74
0
 40
0
 40
0
 40
0
 40
0
 40
1
 40
1
 40
1
 40
1
 10
132.286570
 20
221.778448
 30
0.0
 10
132.078577
 20
219.600736
 30
0.0
 10
131.974629
 20
218.127414
 30
0.0
 10
131.974629
 20
217.358755
 30
0.0
  0
SPLINE
  5
270
100
AcDbEntity
  8
0
 62
7
100
AcDbSpline
 70
8
 71
3
 72
8
 73
4
 74
0
 40
0
 40
0
 40
0
 40
0
 40
1
 40
1
 40
1
 40
1
 10
131.974629
 20
217.358755
 30
0.0
 10
131.837785
 20
214.540649
 30
0.0
 10
131.769090
 20
210.441752
 30
0.0
 10
131.769090
 20
205.061375
 30
0.0
  0
SPLINE
  5
271
100
AcDbEntity
  8
0
 62
7
100
AcDbSpline
 70
8
 71
3
 72
8
 73
4
 74
0
 40
0
 40
0
 40
0
 40
0
 40
1
 40
1
 40
1
 40
1
 10
131.769090
 20
205.061375
 30
0.0
 10
131.769090
 20
197.631550
 30
0.0
 10
132.459957
 20
187.639316
 30
0.0
 10
133.841542
 20
175.084260
 30
0.0
  0
SPLINE
  5
272
100
AcDbEntity
  8
0
 62
7
100
AcDbSpline
 70
8
 71
3
 72
8
 73
4
 74
0
 40
0
 40
0
 40
0
 40
0
 40
1
 40
1
 40
1
 40
1
 10
133.841542
 20
175.084260
 30
0.0
 10
135.223127
 20
162.529212
 30
0.0
 10
135.914018
 20
152.215856
 30
0.0
 10
135.914018
 20
144.144498
 30
0.0
  0
SPLINE
  5
273
100
AcDbEntity
  8
0
 62
7
100
AcDbSpline
 70
8
 71
3
 72
8
 73
4
 74
0
 40
0
 40
0
 40
0
 40
0
 40
1
 40
1
 40
1
 40
1
 10
135.914018
 20
144.144498
 30
0.0
 10
135.914018
 20
143.248949
 30
0.0
 10
135.775835
 20
142.352541
 30
0.0
 10
135.499667
 20
141.455854
 30
0.0
  0
SPLINE
  5
274
100
AcDbEntity
  8
0
 62
7
100
AcDbSpline
 70
8
 71
3
 72
8
 73
4
 74
0
 40
0
 40
0
 40
0
 40
0
 40
1
 40
1
 40
1
 40
1
 10
135.499667
 20
141.455854
 30
0.0
 10
135.223251
 20
140.559152
 30
0.0
 10
134.877743
 20
139.502277
 30
0.0
 10
134.463242
 20
138.284691
 30
0.0
  0
SPLINE
  5
275
100
AcDbEntity
  8
0
 62
7
100
AcDbSpline
 70
8
 71
3
 72
8
 73
4
 74
0
 40
0
 40
0
 40
0
 40
0
 40
1
 40
1
 40
1
 40
1
 10
134.463242
 20
138.284691
 30
0.0
 10
134.048742
 20
137.067350
 30
0.0
 10
133.703358
 20
136.010438
 30
0.0
 10
133.427190
 20
135.114891
 30
0.0
  0
LWPOLYLINE
  5
276
100
AcDbEntity
  8
0
 62
7
100
AcDbPolyline
 90
2
 70
0
 10
123.270768
 20
248.681367
 30
0.0
 10
138.815173
 20
248.681367
 30
0.0
  0
SPLINE
  5
277
100
AcDbEntity
  8
0
 62
7
100
AcDbSpline
 70
8
 71
3
 72
8
 73
4
 74
0
 40
0
 40
0
 40
0
 40
0
 40
1
 40
1
 40
1
 40
1
 10
133.427190
 20
134.152575
 30
0.0
 10
133.427190
 20
133.257095
 30
0.0
 10
133.703309
 20
132.488501
 30
0.0
 10
134.255893
 20
131.846773
 30
0.0
  0
SPLINE
  5
278
100
AcDbEntity
  8
0
 62
7
100
AcDbSpline
 70
8
 71
3
 72
8
 73
4
 74
0
 40
0
 40
0
 40
0
 40
0
 40
1
 40
1
 40
1
 40
1
 10
134.255893
 20
131.846773
 30
0.0
 10
134.945570
 20
131.078177
 30
0.0
 10
136.050863
 20
130.693871
 30
0.0
 10
137.571772
 20
130.693871
 30
0.0
  0
LWPOLYLINE
  5
279
100
AcDbEntity
  8
0
 62
7
100
AcDbPolyline
 90
2
 70
0
 10
133.427190
 20
135.114891
 30
0.0
 10
133.427190
 20
134.152575
 30
0.0
  0
SPLINE
  5
27a
100
AcDbEntity
  8
0
 62
7
100
AcDbSpline
 70
8
 71
3
 72
8
 73
4
 74
0
 40
0
 40
0
 40
0
 40
0
 40
1
 40
1
 40
1
 40
1
 10
154.979495
 20
130.693871
 30
0.0
 10
156.224210
 20
130.693871
 30
0.0
 10
157.261180
 20
131.142809
 30
0.0
 10
158.090181
 20
132.040719
 30
0.0
  0
SPLINE
  5
27b
100
AcDbEntity
  8
0
 62
7
100
AcDbSpline
 70
8
 71
3
 72
8
 73
4
 74
0
 40
0
 40
0
 40
0
 40
0
 40
1
 40
1
 40
1
 40
1
 10
158.090181
 20
132.040719
 30
0.0
 10
158.779610
 20
132.936196
 30
0.0
 10
159.124423
 20
133.704705
 30
0.0
 10
159.124423
 20
134.346521
 30
0.0
  0
SPLINE
  5
27c
100
AcDbEntity
  8
0
 62
7
100
AcDbSpline
 70
8
 71
3
 72
8
 73
4
 74
0
 40
0
 40
0
 40
0
 40
0
 40
1
 40
1
 40
1
 40
1
 10
159.124423
 20
134.346521
 30
0.0
 10
159.124423
 20
134.473404
 30
0.0
 10
159.090063
 20
134.633147
 30
0.0
 10
159.021641
 20
134.826006
 30
0.0
  0
SPLINE
  5
27d
100
AcDbEntity
  8
0
 62
7
100
AcDbSpline
 70
8
 71
3
 72
8
 73
4
 74
0
 40
0
 40
0
 40
0
 40
0
 40
1
 40
1
 40
1
 40
1
 10
159.021641
 20
134.826006
 30
0.0
 10
158.953219
 20
135.018625
 30
0.0
 10
158.918884
 20
135.178591
 30
0.0
 10
158.918884
 20
135.305475
 30
0.0
  0
SPLINE
  5
27e
100
AcDbEntity
  8
0
 62
7
100
AcDbSpline
 70
8
 71
3
 72
8
 73
4
 74
0
 40
0
 40
0
 40
0
 40
0
 40
1
 40
1
 40
1
 40
1
 10
158.918884
 20
135.305475
 30
0.0
 10
158.642468
 20
136.203315
 30
0.0
 10
158.158776
 20
137.644774
 30
0.0
 10
157.468108
 20
139.629866
 30
0.0
  0
SPLINE
  5
27f
100
AcDbEntity
  8
0
 62
7
100
AcDbSpline
 70
8
 71
3
 72
8
 73
4
 74
0
 40
0
 40
0
 40
0
 40
0
 40
1
 40
1
 40
1
 40
1
 10
157.468108
 20
139.629866
 30
0.0
 10
156.777439
 20
141.614960
 30
0.0
 10
156.432056
 20
143.119549
 30
0.0
 10
156.432056
 20
144.144498
 30
0.0
  0
LWPOLYLINE
  5
280
100
AcDbEntity
  8
0
 62
7
100
AcDbPolyline
 90
2
 70
0
 10
137.571772
 20
130.693871
 30
0.0
 10
154.979495
 20
130.693871
 30
0.0
  0
SPLINE
  5
281
100
AcDbEntity
  8
0
 62
7
100
AcDbSpline
 70
8
 71
3
 72
8
 73
4
 74
0
 40
0
 40
0
 40
0
 40
0
 40
1
 40
1
 40
1
 40
1
 10
156.432056
 20
144.338099
 30
0.0
 10
156.568900
 20
152.024221
 30
0.0
 10
157.120914
 20
162.176764
 30
0.0
 10
158.087999
 20
174.795025
 30
0.0
  0
SPLINE
  5
282
100
AcDbEntity
  8
0
 62
7
100
AcDbSpline
 70
8
 71
3
 72
8
 73
4
 74
0
 40
0
 40
0
 40
0
 40
0
 40
1
 40
1
 40
1
 40
1
 10
158.087999
 20
174.795025
 30
0.0
 10
159.055084
 20
187.413546
 30
0.0
 10
159.538775
 20
197.566912
 30
0.0
 10
159.538775
 20
205.255332
 30
0.0
  0
SPLINE
  5
283
100
AcDbEntity
  8
0
 62
7
100
AcDbSpline
 70
8
 71
3
 72
8
 73
4
 74
0
 40
0
 40
0
 40
0
 40
0
 40
1
 40
1
 40
1
 40
1
 10
159.538775
 20
205.255332
 30
0.0
 10
159.538775
 20
210.635457
 30
0.0
 10
159.470179
 20
214.734698
 30
0.0
 10
159.333582
 20
217.553035
 30
0.0
  0
SPLINE
  5
284
100
AcDbEntity
  8
0
 62
7
100
AcDbSpline
 70
8
 71
3
 72
8
 73
4
 74
0
 40
0
 40
0
 40
0
 40
0
 40
1
 40
1
 40
1
 40
1
 10
159.333582
 20
217.553035
 30
0.0
 10
159.333582
 20
217.936237
 30
0.0
 10
159.229387
 20
219.568923
 30
0.0
 10
159.021641
 20
222.451851
 30
0.0
  0
SPLINE
  5
285
100
AcDbEntity
  8
0
 62
7
100
AcDbSpline
 70
8
 71
3
 72
8
 73
4
 74
0
 40
0
 40
0
 40
0
 40
0
 40
1
 40
1
 40
1
 40
1
 10
159.021641
 20
222.451851
 30
0.0
 10
158.813647
 20
225.334549
 30
0.0
 10
158.675712
 20
227.032033
 30
0.0
 10
158.607290
 20
227.544625
 30
0.0
  0
SPLINE
  5
286
100
AcDbEntity
  8
0
 62
7
100
AcDbSpline
 70
8
 71
3
 72
8
 73
4
 74
0
 40
0
 40
0
 40
0
 40
0
 40
1
 40
1
 40
1
 40
1
 10
158.607290
 20
227.544625
 30
0.0
 10
158.538867
 20
228.056987
 30
0.0
 10
158.366349
 20
229.402299
 30
0.0
 10
158.090181
 20
231.579781
 30
0.0
  0
SPLINE
  5
287
100
AcDbEntity
  8
0
 62
7
100
AcDbSpline
 70
8
 71
3
 72
8
 73
4
 74
0
 40
0
 40
0
 40
0
 40
0
 40
1
 40
1
 40
1
 40
1
 10
158.090181
 20
231.579781
 30
0.0
 10
157.813764
 20
233.757492
 30
0.0
 10
157.537547
 20
235.230792
 30
0.0
 10
157.261130
 20
235.999473
 30
0.0
  0
SPLINE
  5
288
100
AcDbEntity
  8
0
 62
7
100
AcDbSpline
 70
8
 71
3
 72
8
 73
4
 74
0
 40
0
 40
0
 40
0
 40
0
 40
1
 40
1
 40
1
 40
1
 10
157.261130
 20
235.999473
 30
0.0
 10
156.984962
 20
236.768131
 30
0.0
 10
156.639207
 20
238.017477
 30
0.0
 10
156.224706
 20
239.747394
 30
0.0
  0
SPLINE
  5
289
100
AcDbEntity
  8
0
 62
7
100
AcDbSpline
 70
8
 71
3
 72
8
 73
4
 74
0
 40
0
 40
0
 40
0
 40
0
 40
1
 40
1
 40
1
 40
1
 10
156.224706
 20
239.747394
 30
0.0
 10
155.810454
 20
241.477335
 30
0.0
 10
155.292205
 20
243.014214
 30
0.0
 10
154.669710
 20
244.358676
 30
0.0
  0
SPLINE
  5
28a
100
AcDbEntity
  8
0
 62
7
100
AcDbSpline
 70
8
 71
3
 72
8
 73
4
 74
0
 40
0
 40
0
 40
0
 40
0
 40
1
 40
1
 40
1
 40
1
 10
154.669710
 20
244.358676
 30
0.0
 10
154.047216
 20
245.703115
 30
0.0
 10
153.321667
 20
247.144073
 30
0.0
 10
152.492667
 20
248.681367
 30
0.0
  0
LWPOLYLINE
  5
28b
100
AcDbEntity
  8
0
 62
7
100
AcDbPolyline
 90
2
 70
0
 10
156.432056
 20
144.144498
 30
0.0
 10
156.432056
 20
144.338099
 30
0.0
  0
SPLINE
  5
28c
100
AcDbEntity
  8
0
 62
7
100
AcDbSpline
 70
8
 71
3
 72
8
 73
4
 74
0
 40
0
 40
0
 40
0
 40
0
 40
1
 40
1
 40
1
 40
1
 10
168.037444
 20
248.681367
 30
0.0
 10
169.419027
 20
248.681367
 30
0.0
 10
170.593560
 20
249.321624
 30
0.0
 10
171.562132
 20
250.602644
 30
0.0
  0
SPLINE
  5
28d
100
AcDbEntity
  8
0
 62
7
100
AcDbSpline
 70
8
 71
3
 72
8
 73
4
 74
0
 40
0
 40
0
 40
0
 40
0
 40
1
 40
1
 40
1
 40
1
 10
171.562132
 20
250.602644
 30
0.0
 10
171.975145
 20
251.373831
 30
0.0
 10
172.181998
 20
252.015260
 30
0.0
 10
172.181998
 20
252.527622
 30
0.0
  0
SPLINE
  5
28e
100
AcDbEntity
  8
0
 62
7
100
AcDbSpline
 70
8
 71
3
 72
8
 73
4
 74
0
 40
0
 40
0
 40
0
 40
0
 40
1
 40
1
 40
1
 40
1
 10
172.181998
 20
252.527622
 30
0.0
 10
172.181998
 20
253.296280
 30
0.0
 10
171.975145
 20
253.936974
 30
0.0
 10
171.562132
 20
254.449589
 30
0.0
  0
SPLINE
  5
28f
100
AcDbEntity
  8
0
 62
7
100
AcDbSpline
 70
8
 71
3
 72
8
 73
4
 74
0
 40
0
 40
0
 40
0
 40
0
 40
1
 40
1
 40
1
 40
1
 10
171.562132
 20
254.449589
 30
0.0
 10
170.454236
 20
256.242949
 30
0.0
 10
169.106242
 20
257.971947
 30
0.0
 10
167.518153
 20
259.637296
 30
0.0
  0
SPLINE
  5
290
100
AcDbEntity
  8
0
 62
7
100
AcDbSpline
 70
8
 71
3
 72
8
 73
4
 74
0
 40
0
 40
0
 40
0
 40
0
 40
1
 40
1
 40
1
 40
1
 10
167.518153
 20
259.637296
 30
0.0
 10
165.930062
 20
261.302645
 30
0.0
 10
164.721516
 20
262.679334
 30
0.0
 10
163.892515
 20
263.767730
 30
0.0
  0
SPLINE
  5
291
100
AcDbEntity
  8
0
 62
7
100
AcDbSpline
 70
8
 71
3
 72
8
 73
4
 74
0
 40
0
 40
0
 40
0
 40
0
 40
1
 40
1
 40
1
 40
1
 10
163.892515
 20
263.767730
 30
0.0
 10
163.063515
 20
264.855896
 30
0.0
 10
162.649089
 20
266.168614
 30
0.0
 10
162.649089
 20
267.705931
 30
0.0
  0
LWPOLYLINE
  5
292
100
AcDbEntity
  8
0
 62
7
100
AcDbPolyline
 90
2
 70
0
 10
152.492667
 20
248.681367
 30
0.0
 10
168.037444
 20
248.681367
 30
0.0
  0
SPLINE
  5
293
100
AcDbEntity
  8
0
 62
7
100
AcDbSpline
 70
8
 71
3
 72
8
 73
4
 74
0
 40
0
 40
0
 40
0
 40
0
 40
1
 40
1
 40
1
 40
1
 10
162.649089
 20
268.284056
 30
0.0
 10
162.649089
 20
270.846097
 30
0.0
 10
163.857635
 20
274.240858
 30
0.0
 10
166.274727
 20
278.468225
 30
0.0
  0
SPLINE
  5
294
100
AcDbEntity
  8
0
 62
7
100
AcDbSpline
 70
8
 71
3
 72
8
 73
4
 74
0
 40
0
 40
0
 40
0
 40
0
 40
1
 40
1
 40
1
 40
1
 10
166.274727
 20
278.468225
 30
0.0
 10
168.691817
 20
282.695384
 30
0.0
 10
170.108158
 20
286.602416
 30
0.0
 10
170.523898
 20
290.189180
 30
0.0
  0
LWPOLYLINE
  5
295
100
AcDbEntity
  8
0
 62
7
100
AcDbPolyline
 90
2
 70
0
 10
162.649089
 20
267.705931
 30
0.0
 10
162.649089
 20
268.284056
 30
0.0
  0
SPLINE
  5
296
100
AcDbEntity
  8
0
 62
7
100
AcDbSpline
 70
8
 71
3
 72
8
 73
4
 74
0
 40
0
 40
0
 40
0
 40
0
 40
1
 40
1
 40
1
 40
1
 10
170.523898
 20
291.342420
 30
0.0
 10
170.523898
 20
293.648142
 30
0.0
 10
169.764088
 20
296.306471
 30
0.0
 10
168.244446
 20
299.317432
 30
0.0
  0
SPLINE
  5
297
100
AcDbEntity
  8
0
 62
7
100
AcDbSpline
 70
8
 71
3
 72
8
 73
4
 74
0
 40
0
 40
0
 40
0
 40
0
 40
1
 40
1
 40
1
 40
1
 10
168.244446
 20
299.317432
 30
0.0
 10
166.724777
 20
302.328393
 30
0.0
 10
165.964967
 20
304.474337
 30
0.0
 10
165.964967
 20
305.755358
 30
0.0
  0
SPLINE
  5
298
100
AcDbEntity
  8
0
 62
7
100
AcDbSpline
 70
8
 71
3
 72
8
 73
4
 74
0
 40
0
 40
0
 40
0
 40
0
 40
1
 40
1
 40
1
 40
1
 10
165.964967
 20
305.755358
 30
0.0
 10
165.964967
 20
307.165560
 30
0.0
 10
166.172168
 20
308.382955
 30
0.0
 10
166.586693
 20
309.407679
 30
0.0
  0
SPLINE
  5
299
100
AcDbEntity
  8
0
 62
7
100
AcDbSpline
 70
8
 71
3
 72
8
 73
4
 74
0
 40
0
 40
0
 40
0
 40
0
 40
1
 40
1
 40
1
 40
1
 10
166.586693
 20
309.407679
 30
0.0
 10
167.001168
 20
310.432633
 30
0.0
 10
167.622795
 20
311.681427
 30
0.0
 10
168.451793
 20
313.153922
 30
0.0
  0
SPLINE
  5
29a
100
AcDbEntity
  8
0
 62
7
100
AcDbSpline
 70
8
 71
3
 72
8
 73
4
 74
0
 40
0
 40
0
 40
0
 40
0
 40
1
 40
1
 40
1
 40
1
 10
168.451793
 20
313.153922
 30
0.0
 10
169.280794
 20
314.626647
 30
0.0
 10
169.971313
 20
316.131231
 30
0.0
 10
170.523898
 20
317.668547
 30
0.0
  0
SPLINE
  5
29b
100
AcDbEntity
  8
0
 62
7
100
AcDbSpline
 70
8
 71
3
 72
8
 73
4
 74
0
 40
0
 40
0
 40
0
 40
0
 40
1
 40
1
 40
1
 40
1
 10
170.523898
 20
317.668547
 30
0.0
 10
170.800314
 20
318.180909
 30
0.0
 10
170.938597
 20
318.629278
 30
0.0
 10
170.938597
 20
319.013377
 30
0.0
  0
SPLINE
  5
29c
100
AcDbEntity
  8
0
 62
7
100
AcDbSpline
 70
8
 71
3
 72
8
 73
4
 74
0
 40
0
 40
0
 40
0
 40
0
 40
1
 40
1
 40
1
 40
1
 10
170.938597
 20
319.013377
 30
0.0
 10
170.938597
 20
319.397706
 30
0.0
 10
170.662379
 20
320.102531
 30
0.0
 10
170.109546
 20
321.127256
 30
0.0
  0
SPLINE
  5
29d
100
AcDbEntity
  8
0
 62
7
100
AcDbSpline
 70
8
 71
3
 72
8
 73
4
 74
0
 40
0
 40
0
 40
0
 40
0
 40
1
 40
1
 40
1
 40
1
 10
170.109546
 20
321.127256
 30
0.0
 10
169.280794
 20
322.151980
 30
0.0
 10
168.175255
 20
322.664342
 30
0.0
 10
166.793670
 20
322.664342
 30
0.0
  0
LWPOLYLINE
  5
29e
100
AcDbEntity
  8
0
 62
7
100
AcDbPolyline
 90
2
 70
0
 10
170.523898
 20
290.189180
 30
0.0
 10
170.523898
 20
291.342420
 30
0.0
  0
SPLINE
  5
29f
100
AcDbEntity
  8
0
 62
7
100
AcDbSpline
 70
8
 71
3
 72
8
 73
4
 74
0
 40
0
 40
0
 40
0
 40
0
 40
1
 40
1
 40
1
 40
1
 10
269.318903
 20
322.509806
 30
0.0
 10
269.318903
 20
308.162747
 30
0.0
 10
269.387920
 20
289.779773
 30
0.0
 10
269.526252
 20
267.361138
 30
0.0
  0
SPLINE
  5
2a0
100
AcDbEntity
  8
0
 62
7
100
AcDbSpline
 70
8
 71
3
 72
8
 73
4
 74
0
 40
0
 40
0
 40
0
 40
0
 40
1
 40
1
 40
1
 40
1
 10
269.526252
 20
267.361138
 30
0.0
 10
269.664336
 20
244.942226
 30
0.0
 10
269.803090
 20
226.558333
 30
0.0
 10
269.942413
 20
212.208746
 30
0.0
  0
SPLINE
  5
2a1
100
AcDbEntity
  8
0
 62
7
100
AcDbSpline
 70
8
 71
3
 72
8
 73
4
 74
0
 40
0
 40
0
 40
0
 40
0
 40
1
 40
1
 40
1
 40
1
 10
269.942413
 20
212.208746
 30
0.0
 10
269.942413
 20
209.134367
 30
0.0
 10
270.080597
 20
205.130632
 30
0.0
 10
270.356765
 20
200.198256
 30
0.0
  0
SPLINE
  5
2a2
100
AcDbEntity
  8
0
 62
7
100
AcDbSpline
 70
8
 71
3
 72
8
 73
4
 74
0
 40
0
 40
0
 40
0
 40
0
 40
1
 40
1
 40
1
 40
1
 10
270.356765
 20
200.198256
 30
0.0
 10
270.633181
 20
195.265857
 30
0.0
 10
270.771488
 20
191.711480
 30
0.0
 10
270.771488
 20
189.534918
 30
0.0
  0
SPLINE
  5
2a3
100
AcDbEntity
  8
0
 62
7
100
AcDbSpline
 70
8
 71
3
 72
8
 73
4
 74
0
 40
0
 40
0
 40
0
 40
0
 40
1
 40
1
 40
1
 40
1
 10
270.771488
 20
189.534918
 30
0.0
 10
270.771488
 20
188.766513
 30
0.0
 10
270.805452
 20
187.485423
 30
0.0
 10
270.873874
 20
185.692041
 30
0.0
  0
SPLINE
  5
2a4
100
AcDbEntity
  8
0
 62
7
100
AcDbSpline
 70
8
 71
3
 72
8
 73
4
 74
0
 40
0
 40
0
 40
0
 40
0
 40
1
 40
1
 40
1
 40
1
 10
270.873874
 20
185.692041
 30
0.0
 10
270.942296
 20
183.898659
 30
0.0
 10
270.976656
 20
182.489353
 30
0.0
 10
270.976656
 20
181.464628
 30
0.0
  0
SPLINE
  5
2a5
100
AcDbEntity
  8
0
 62
7
100
AcDbSpline
 70
8
 71
3
 72
8
 73
4
 74
0
 40
0
 40
0
 40
0
 40
0
 40
1
 40
1
 40
1
 40
1
 10
270.976656
 20
181.464628
 30
0.0
 10
270.976656
 20
175.057206
 30
0.0
 10
269.871363
 20
170.572440
 30
0.0
 10
267.660778
 20
168.010629
 30
0.0
  0
SPLINE
  5
2a6
100
AcDbEntity
  8
0
 62
7
100
AcDbSpline
 70
8
 71
3
 72
8
 73
4
 74
0
 40
0
 40
0
 40
0
 40
0
 40
1
 40
1
 40
1
 40
1
 10
267.660778
 20
168.010629
 30
0.0
 10
264.760763
 20
164.679930
 30
0.0
 10
260.340088
 20
161.926291
 30
0.0
 10
254.398008
 20
159.749733
 30
0.0
  0
LWPOLYLINE
  5
2a7
100
AcDbEntity
  8
0
 62
7
100
AcDbPolyline
 90
2
 70
0
 10
166.793670
 20
322.664342
 30
0.0
 10
124.514169
 20
322.664342
 30
0.0
  0
SPLINE
  5
2a8
100
AcDbEntity
  8
0
 62
7
100
AcDbSpline
 70
8
 71
3
 72
8
 73
4
 74
0
 40
0
 40
0
 40
0
 40
0
 40
1
 40
1
 40
1
 40
1
 10
233.879946
 20
153.791284
 30
0.0
 10
231.945776
 20
153.278922
 30
0.0
 10
229.700037
 20
152.798400
 30
0.0
 10
227.143622
 20
152.349480
 30
0.0
  0
SPLINE
  5
2a9
100
AcDbEntity
  8
0
 62
7
100
AcDbSpline
 70
8
 71
3
 72
8
 73
4
 74
0
 40
0
 40
0
 40
0
 40
0
 40
1
 40
1
 40
1
 40
1
 10
227.143622
 20
152.349480
 30
0.0
 10
224.586958
 20
151.900559
 30
0.0
 10
222.272549
 20
151.452087
 30
0.0
 10
220.200296
 20
151.004323
 30
0.0
  0
SPLINE
  5
2aa
100
AcDbEntity
  8
0
 62
7
100
AcDbSpline
 70
8
 71
3
 72
8
 73
4
 74
0
 40
0
 40
0
 40
0
 40
0
 40
1
 40
1
 40
1
 40
1
 10
220.200296
 20
151.004323
 30
0.0
 10
218.128042
 20
150.556557
 30
0.0
 10
215.986846
 20
149.883574
 30
0.0
 10
213.776260
 20
148.985734
 30
0.0
  0
SPLINE
  5
2ab
100
AcDbEntity
  8
0
 62
7
100
AcDbSpline
 70
8
 71
3
 72
8
 73
4
 74
0
 40
0
 40
0
 40
0
 40
0
 40
1
 40
1
 40
1
 40
1
 10
213.776260
 20
148.985734
 30
0.0
 10
208.942076
 20
147.321764
 30
0.0
 10
205.764257
 20
145.272194
 30
0.0
 10
204.243348
 20
142.837044
 30
0.0
  0
SPLINE
  5
2ac
100
AcDbEntity
  8
0
 62
7
100
AcDbSpline
 70
8
 71
3
 72
8
 73
4
 74
0
 40
0
 40
0
 40
0
 40
0
 40
1
 40
1
 40
1
 40
1
 10
204.243348
 20
142.837044
 30
0.0
 10
203.690516
 20
142.197798
 30
0.0
 10
203.414273
 20
141.365725
 30
0.0
 10
203.414273
 20
140.341001
 30
0.0
  0
SPLINE
  5
2ad
100
AcDbEntity
  8
0
 62
7
100
AcDbSpline
 70
8
 71
3
 72
8
 73
4
 74
0
 40
0
 40
0
 40
0
 40
0
 40
1
 40
1
 40
1
 40
1
 10
203.414273
 20
140.341001
 30
0.0
 10
203.414273
 20
138.803692
 30
0.0
 10
204.105165
 20
137.586194
 30
0.0
 10
205.486750
 20
136.688353
 30
0.0
  0
SPLINE
  5
2ae
100
AcDbEntity
  8
0
 62
7
100
AcDbSpline
 70
8
 71
3
 72
8
 73
4
 74
0
 40
0
 40
0
 40
0
 40
0
 40
1
 40
1
 40
1
 40
1
 10
205.486750
 20
136.688353
 30
0.0
 10
209.494660
 20
134.255702
 30
0.0
 10
215.366954
 20
132.526755
 30
0.0
 10
223.103632
 20
131.501980
 30
0.0
  0
SPLINE
  5
2af
100
AcDbEntity
  8
0
 62
7
100
AcDbSpline
 70
8
 71
3
 72
8
 73
4
 74
0
 40
0
 40
0
 40
0
 40
0
 40
1
 40
1
 40
1
 40
1
 10
223.103632
 20
131.501980
 30
0.0
 10
232.637635
 20
131.501980
 30
0.0
 10
239.442009
 20
132.014289
 30
0.0
 10
243.517102
 20
133.039066
 30
0.0
  0
SPLINE
  5
2b0
100
AcDbEntity
  8
0
 62
7
100
AcDbSpline
 70
8
 71
3
 72
8
 73
4
 74
0
 40
0
 40
0
 40
0
 40
0
 40
1
 40
1
 40
1
 40
1
 10
243.517102
 20
133.039066
 30
0.0
 10
247.591948
 20
134.063841
 30
0.0
 10
250.873020
 20
134.639852
 30
0.0
 10
253.359774
 20
134.766736
 30
0.0
  0
SPLINE
  5
2b1
100
AcDbEntity
  8
0
 62
7
100
AcDbSpline
 70
8
 71
3
 72
8
 73
4
 74
0
 40
0
 40
0
 40
0
 40
0
 40
1
 40
1
 40
1
 40
1
 10
253.359774
 20
134.766736
 30
0.0
 10
254.051930
 20
134.895914
 30
0.0
 10
254.950592
 20
134.960682
 30
0.0
 10
256.055761
 20
134.960682
 30
0.0
  0
SPLINE
  5
2b2
100
AcDbEntity
  8
0
 62
7
100
AcDbSpline
 70
8
 71
3
 72
8
 73
4
 74
0
 40
0
 40
0
 40
0
 40
0
 40
1
 40
1
 40
1
 40
1
 10
256.055761
 20
134.960682
 30
0.0
 10
257.300254
 20
134.960682
 30
0.0
 10
258.855373
 20
134.800181
 30
0.0
 10
260.719633
 20
134.479523
 30
0.0
  0
SPLINE
  5
2b3
100
AcDbEntity
  8
0
 62
7
100
AcDbSpline
 70
8
 71
3
 72
8
 73
4
 74
0
 40
0
 40
0
 40
0
 40
0
 40
1
 40
1
 40
1
 40
1
 10
260.719633
 20
134.479523
 30
0.0
 10
262.584141
 20
134.158643
 30
0.0
 10
263.723992
 20
133.998020
 30
0.0
 10
264.139732
 20
133.998020
 30
0.0
  0
SPLINE
  5
2b4
100
AcDbEntity
  8
0
 62
7
100
AcDbSpline
 70
8
 71
3
 72
8
 73
4
 74
0
 40
0
 40
0
 40
0
 40
0
 40
1
 40
1
 40
1
 40
1
 10
264.139732
 20
133.998020
 30
0.0
 10
265.797733
 20
133.871136
 30
0.0
 10
268.906287
 20
133.327037
 30
0.0
 10
273.465294
 20
132.365652
 30
0.0
  0
SPLINE
  5
2b5
100
AcDbEntity
  8
0
 62
7
100
AcDbSpline
 70
8
 71
3
 72
8
 73
4
 74
0
 40
0
 40
0
 40
0
 40
0
 40
1
 40
1
 40
1
 40
1
 10
273.465294
 20
132.365652
 30
0.0
 10
278.024549
 20
131.404266
 30
0.0
 10
282.998875
 20
130.923847
 30
0.0
 10
288.388371
 20
130.923847
 30
0.0
  0
LWPOLYLINE
  5
2b6
100
AcDbEntity
  8
0
 62
7
100
AcDbPolyline
 90
2
 70
0
 10
254.398008
 20
159.749733
 30
0.0
 10
233.879946
 20
153.791284
 30
0.0
  0
SPLINE
  5
2b7
100
AcDbEntity
  8
0
 62
7
100
AcDbSpline
 70
8
 71
3
 72
8
 73
4
 74
0
 40
0
 40
0
 40
0
 40
0
 40
1
 40
1
 40
1
 40
1
 10
289.217049
 20
130.923847
 30
0.0
 10
291.704051
 20
130.923847
 30
0.0
 10
294.605528
 20
131.724785
 30
0.0
 10
297.921283
 20
133.326624
 30
0.0
  0
SPLINE
  5
2b8
100
AcDbEntity
  8
0
 62
7
100
AcDbSpline
 70
8
 71
3
 72
8
 73
4
 74
0
 40
0
 40
0
 40
0
 40
0
 40
1
 40
1
 40
1
 40
1
 10
297.921283
 20
133.326624
 30
0.0
 10
301.237037
 20
134.928513
 30
0.0
 10
302.894542
 20
137.073607
 30
0.0
 10
302.894542
 20
139.762526
 30
0.0
  0
LWPOLYLINE
  5
2b9
100
AcDbEntity
  8
0
 62
7
100
AcDbPolyline
 90
2
 70
0
 10
288.388371
 20
130.923847
 30
0.0
 10
289.217049
 20
130.923847
 30
0.0
  0
SPLINE
  5
2ba
100
AcDbEntity
  8
0
 62
7
100
AcDbSpline
 70
8
 71
3
 72
8
 73
4
 74
0
 40
0
 40
0
 40
0
 40
0
 40
1
 40
1
 40
1
 40
1
 10
303.514433
 20
140.725188
 30
0.0
 10
303.514433
 20
143.543299
 30
0.0
 10
303.272873
 20
146.873947
 30
0.0
 10
302.789950
 20
150.716766
 30
0.0
  0
SPLINE
  5
2bb
100
AcDbEntity
  8
0
 62
7
100
AcDbSpline
 70
8
 71
3
 72
8
 73
4
 74
0
 40
0
 40
0
 40
0
 40
0
 40
1
 40
1
 40
1
 40
1
 10
302.789950
 20
150.716766
 30
0.0
 10
302.307028
 20
154.559827
 30
0.0
 10
302.065839
 20
156.802153
 30
0.0
 10
302.065839
 20
157.443931
 30
0.0
  0
SPLINE
  5
2bc
100
AcDbEntity
  8
0
 62
7
100
AcDbSpline
 70
8
 71
3
 72
8
 73
4
 74
0
 40
0
 40
0
 40
0
 40
0
 40
1
 40
1
 40
1
 40
1
 10
302.065839
 20
157.443931
 30
0.0
 10
302.065839
 20
157.699993
 30
0.0
 10
302.134757
 20
158.212700
 30
0.0
 10
302.272841
 20
158.981363
 30
0.0
  0
SPLINE
  5
2bd
100
AcDbEntity
  8
0
 62
7
100
AcDbSpline
 70
8
 71
3
 72
8
 73
4
 74
0
 40
0
 40
0
 40
0
 40
0
 40
1
 40
1
 40
1
 40
1
 10
302.272841
 20
158.981363
 30
0.0
 10
302.411174
 20
159.749786
 30
0.0
 10
302.583444
 20
161.062378
 30
0.0
 10
302.789950
 20
162.919207
 30
0.0
  0
SPLINE
  5
2be
100
AcDbEntity
  8
0
 62
7
100
AcDbSpline
 70
8
 71
3
 72
8
 73
4
 74
0
 40
0
 40
0
 40
0
 40
0
 40
1
 40
1
 40
1
 40
1
 10
302.789950
 20
162.919207
 30
0.0
 10
302.996705
 20
164.776013
 30
0.0
 10
303.169942
 20
166.985905
 30
0.0
 10
303.309266
 20
169.547715
 30
0.0
  0
SPLINE
  5
2bf
100
AcDbEntity
  8
0
 62
7
100
AcDbSpline
 70
8
 71
3
 72
8
 73
4
 74
0
 40
0
 40
0
 40
0
 40
0
 40
1
 40
1
 40
1
 40
1
 10
303.309266
 20
169.547715
 30
0.0
 10
303.998695
 20
183.255758
 30
0.0
 10
304.343484
 20
196.451163
 30
0.0
 10
304.343484
 20
209.134252
 30
0.0
  0
LWPOLYLINE
  5
2c0
100
AcDbEntity
  8
0
 62
7
100
AcDbPolyline
 90
2
 70
0
 10
302.894542
 20
139.762526
 30
0.0
 10
303.514433
 20
140.725188
 30
0.0
  0
LWPOLYLINE
  5
2c1
100
AcDbEntity
  8
0
 62
7
100
AcDbPolyline
 90
3
 70
0
 10
304.343484
 20
209.134252
 30
0.0
 10
304.343484
 20
322.509806
 30
0.0
 10
269.318903
 20
322.509806
 30
0.0
  0
SPLINE
  5
2c2
100
AcDbEntity
  8
0
 62
7
100
AcDbSpline
 70
8
 71
3
 72
8
 73
4
 74
0
 40
0
 40
0
 40
0
 40
0
 40
1
 40
1
 40
1
 40
1
 10
294.605404
 20
315.592733
 30
0.0
 10
294.605404
 20
306.498708
 30
0.0
 10
294.674421
 20
287.090803
 30
0.0
 10
294.812753
 20
257.369203
 30
0.0
  0
SPLINE
  5
2c3
100
AcDbEntity
  8
0
 62
7
100
AcDbSpline
 70
8
 71
3
 72
8
 73
4
 74
0
 40
0
 40
0
 40
0
 40
0
 40
1
 40
1
 40
1
 40
1
 10
294.812753
 20
257.369203
 30
0.0
 10
294.950838
 20
227.647603
 30
0.0
 10
295.019756
 20
212.209643
 30
0.0
 10
295.019756
 20
211.055506
 30
0.0
  0
LWPOLYLINE
  5
2c4
100
AcDbEntity
  8
0
 62
7
100
AcDbPolyline
 90
2
 70
0
 10
279.680518
 20
315.786346
 30
0.0
 10
294.605404
 20
315.592733
 30
0.0
  0
SPLINE
  5
2c5
100
AcDbEntity
  8
0
 62
7
100
AcDbSpline
 70
8
 71
3
 72
8
 73
4
 74
0
 40
0
 40
0
 40
0
 40
0
 40
1
 40
1
 40
1
 40
1
 10
295.019756
 20
210.287147
 30
0.0
 10
294.743339
 20
205.033654
 30
0.0
 10
294.605404
 20
198.116604
 30
0.0
 10
294.605404
 20
189.534918
 30
0.0
  0
LWPOLYLINE
  5
2c6
100
AcDbEntity
  8
0
 62
7
100
AcDbPolyline
 90
2
 70
0
 10
295.019756
 20
211.055506
 30
0.0
 10
295.019756
 20
210.287147
 30
0.0
  0
SPLINE
  5
2c7
100
AcDbEntity
  8
0
 62
7
100
AcDbSpline
 70
8
 71
3
 72
8
 73
4
 74
0
 40
0
 40
0
 40
0
 40
0
 40
1
 40
1
 40
1
 40
1
 10
294.605404
 20
188.766559
 30
0.0
 10
294.605404
 20
180.821843
 30
0.0
 10
294.467221
 20
174.671865
 30
0.0
 10
294.191053
 20
170.316419
 30
0.0
  0
SPLINE
  5
2c8
100
AcDbEntity
  8
0
 62
7
100
AcDbSpline
 70
8
 71
3
 72
8
 73
4
 74
0
 40
0
 40
0
 40
0
 40
0
 40
1
 40
1
 40
1
 40
1
 10
294.191053
 20
170.316419
 30
0.0
 10
294.051481
 20
168.908515
 30
0.0
 10
293.774321
 20
166.795257
 30
0.0
 10
293.359821
 20
163.977151
 30
0.0
  0
SPLINE
  5
2c9
100
AcDbEntity
  8
0
 62
7
100
AcDbSpline
 70
8
 71
3
 72
8
 73
4
 74
0
 40
0
 40
0
 40
0
 40
0
 40
1
 40
1
 40
1
 40
1
 10
293.359821
 20
163.977151
 30
0.0
 10
292.945321
 20
161.158817
 30
0.0
 10
292.669772
 20
159.044942
 30
0.0
 10
292.532927
 20
157.634517
 30
0.0
  0
LWPOLYLINE
  5
2ca
100
AcDbEntity
  8
0
 62
7
100
AcDbPolyline
 90
2
 70
0
 10
294.605404
 20
189.534918
 30
0.0
 10
294.605404
 20
188.766559
 30
0.0
  0
SPLINE
  5
2cb
100
AcDbEntity
  8
0
 62
7
100
AcDbSpline
 70
8
 71
3
 72
8
 73
4
 74
0
 40
0
 40
0
 40
0
 40
0
 40
1
 40
1
 40
1
 40
1
 10
292.532927
 20
155.522661
 30
0.0
 10
292.532927
 20
154.239117
 30
0.0
 10
292.671111
 20
152.316483
 30
0.0
 10
292.947279
 20
149.754450
 30
0.0
  0
SPLINE
  5
2cc
100
AcDbEntity
  8
0
 62
7
100
AcDbSpline
 70
8
 71
3
 72
8
 73
4
 74
0
 40
0
 40
0
 40
0
 40
0
 40
1
 40
1
 40
1
 40
1
 10
292.947279
 20
149.754450
 30
0.0
 10
293.223695
 20
147.192414
 30
0.0
 10
293.362002
 20
145.142846
 30
0.0
 10
293.362002
 20
143.605759
 30
0.0
  0
SPLINE
  5
2cd
100
AcDbEntity
  8
0
 62
7
100
AcDbSpline
 70
8
 71
3
 72
8
 73
4
 74
0
 40
0
 40
0
 40
0
 40
0
 40
1
 40
1
 40
1
 40
1
 10
293.362002
 20
143.605759
 30
0.0
 10
293.362002
 20
142.837094
 30
0.0
 10
293.085760
 20
142.260394
 30
0.0
 10
292.532927
 20
141.876072
 30
0.0
  0
SPLINE
  5
2ce
100
AcDbEntity
  8
0
 62
7
100
AcDbSpline
 70
8
 71
3
 72
8
 73
4
 74
0
 40
0
 40
0
 40
0
 40
0
 40
1
 40
1
 40
1
 40
1
 10
292.532927
 20
141.876072
 30
0.0
 10
291.980343
 20
141.491972
 30
0.0
 10
291.220558
 20
141.075980
 30
0.0
 10
290.253473
 20
140.628214
 30
0.0
  0
SPLINE
  5
2cf
100
AcDbEntity
  8
0
 62
7
100
AcDbSpline
 70
8
 71
3
 72
8
 73
4
 74
0
 40
0
 40
0
 40
0
 40
0
 40
1
 40
1
 40
1
 40
1
 10
290.253473
 20
140.628214
 30
0.0
 10
289.286389
 20
140.180450
 30
0.0
 10
288.526604
 20
139.763818
 30
0.0
 10
287.974019
 20
139.378340
 30
0.0
  0
SPLINE
  5
2d0
100
AcDbEntity
  8
0
 62
7
100
AcDbSpline
 70
8
 71
3
 72
8
 73
4
 74
0
 40
0
 40
0
 40
0
 40
0
 40
1
 40
1
 40
1
 40
1
 10
287.974019
 20
139.378340
 30
0.0
 10
281.616199
 20
139.890927
 30
0.0
 10
277.401783
 20
140.339709
 30
0.0
 10
275.330769
 20
140.725188
 30
0.0
  0
SPLINE
  5
2d1
100
AcDbEntity
  8
0
 62
7
100
AcDbSpline
 70
8
 71
3
 72
8
 73
4
 74
0
 40
0
 40
0
 40
0
 40
0
 40
1
 40
1
 40
1
 40
1
 10
275.330769
 20
140.725188
 30
0.0
 10
275.191197
 20
140.852071
 30
0.0
 10
274.050974
 20
141.043654
 30
0.0
 10
271.910298
 20
141.299957
 30
0.0
  0
SPLINE
  5
2d2
100
AcDbEntity
  8
0
 62
7
100
AcDbSpline
 70
8
 71
3
 72
8
 73
4
 74
0
 40
0
 40
0
 40
0
 40
0
 40
1
 40
1
 40
1
 40
1
 10
271.910298
 20
141.299957
 30
0.0
 10
269.769374
 20
141.556017
 30
0.0
 10
267.075470
 20
141.812267
 30
0.0
 10
263.828137
 20
142.068328
 30
0.0
  0
SPLINE
  5
2d3
100
AcDbEntity
  8
0
 62
7
100
AcDbSpline
 70
8
 71
3
 72
8
 73
4
 74
0
 40
0
 40
0
 40
0
 40
0
 40
1
 40
1
 40
1
 40
1
 10
263.828137
 20
142.068328
 30
0.0
 10
260.580805
 20
142.324629
 30
0.0
 10
257.713465
 20
142.452512
 30
0.0
 10
255.226711
 20
142.452512
 30
0.0
  0
SPLINE
  5
2d4
100
AcDbEntity
  8
0
 62
7
100
AcDbSpline
 70
8
 71
3
 72
8
 73
4
 74
0
 40
0
 40
0
 40
0
 40
0
 40
1
 40
1
 40
1
 40
1
 10
255.226711
 20
142.452512
 30
0.0
 10
253.845126
 20
142.452512
 30
0.0
 10
252.878116
 20
142.389158
 30
0.0
 10
252.325531
 20
142.262274
 30
0.0
  0
SPLINE
  5
2d5
100
AcDbEntity
  8
0
 62
7
100
AcDbSpline
 70
8
 71
3
 72
8
 73
4
 74
0
 40
0
 40
0
 40
0
 40
0
 40
1
 40
1
 40
1
 40
1
 10
252.325531
 20
142.262274
 30
0.0
 10
237.404512
 20
140.339709
 30
0.0
 10
229.528511
 20
139.378340
 30
0.0
 10
228.696783
 20
139.378340
 30
0.0
  0
LWPOLYLINE
  5
2d6
100
AcDbEntity
  8
0
 62
7
100
AcDbPolyline
 90
2
 70
0
 10
292.532927
 20
157.634517
 30
0.0
 10
292.532927
 20
155.522661
 30
0.0
  0
SPLINE
  5
2d7
100
AcDbEntity
  8
0
 62
7
100
AcDbSpline
 70
8
 71
3
 72
8
 73
4
 74
0
 40
0
 40
0
 40
0
 40
0
 40
1
 40
1
 40
1
 40
1
 10
227.248214
 20
139.378340
 30
0.0
 10
222.963887
 20
139.378340
 30
0.0
 10
219.164119
 20
140.018930
 30
0.0
 10
215.848365
 20
141.299957
 30
0.0
  0
SPLINE
  5
2d8
100
AcDbEntity
  8
0
 62
7
100
AcDbSpline
 70
8
 71
3
 72
8
 73
4
 74
0
 40
0
 40
0
 40
0
 40
0
 40
1
 40
1
 40
1
 40
1
 10
215.848365
 20
141.299957
 30
0.0
 10
218.335367
 20
142.710160
 30
0.0
 10
220.925993
 20
143.799652
 30
0.0
 10
223.620741
 20
144.568076
 30
0.0
  0
SPLINE
  5
2d9
100
AcDbEntity
  8
0
 62
7
100
AcDbSpline
 70
8
 71
3
 72
8
 73
4
 74
0
 40
0
 40
0
 40
0
 40
0
 40
1
 40
1
 40
1
 40
1
 10
223.620741
 20
144.568076
 30
0.0
 10
226.315489
 20
145.336739
 30
0.0
 10
229.665926
 20
146.072837
 30
0.0
 10
233.672596
 20
146.776904
 30
0.0
  0
SPLINE
  5
2da
100
AcDbEntity
  8
0
 62
7
100
AcDbSpline
 70
8
 71
3
 72
8
 73
4
 74
0
 40
0
 40
0
 40
0
 40
0
 40
1
 40
1
 40
1
 40
1
 10
233.672596
 20
146.776904
 30
0.0
 10
237.679019
 20
147.480748
 30
0.0
 10
240.442760
 20
148.025831
 30
0.0
 10
241.963916
 20
148.411309
 30
0.0
  0
LWPOLYLINE
  5
2db
100
AcDbEntity
  8
0
 62
7
100
AcDbPolyline
 90
2
 70
0
 10
228.696783
 20
139.378340
 30
0.0
 10
227.248214
 20
139.378340
 30
0.0
  0
SPLINE
  5
2dc
100
AcDbEntity
  8
0
 62
7
100
AcDbSpline
 70
8
 71
3
 72
8
 73
4
 74
0
 40
0
 40
0
 40
0
 40
0
 40
1
 40
1
 40
1
 40
1
 10
257.713514
 20
152.254197
 30
0.0
 10
257.989931
 20
152.381081
 30
0.0
 10
259.337354
 20
152.861394
 30
0.0
 10
261.755686
 20
153.694654
 30
0.0
  0
SPLINE
  5
2dd
100
AcDbEntity
  8
0
 62
7
100
AcDbSpline
 70
8
 71
3
 72
8
 73
4
 74
0
 40
0
 40
0
 40
0
 40
0
 40
1
 40
1
 40
1
 40
1
 10
261.755686
 20
153.694654
 30
0.0
 10
264.174017
 20
154.527899
 30
0.0
 10
265.659351
 20
155.072412
 30
0.0
 10
266.212183
 20
155.328715
 30
0.0
  0
SPLINE
  5
2de
100
AcDbEntity
  8
0
 62
7
100
AcDbSpline
 70
8
 71
3
 72
8
 73
4
 74
0
 40
0
 40
0
 40
0
 40
0
 40
1
 40
1
 40
1
 40
1
 10
266.212183
 20
155.328715
 30
0.0
 10
266.764768
 20
155.584774
 30
0.0
 10
267.939227
 20
156.161026
 30
0.0
 10
269.735064
 20
157.057729
 30
0.0
  0
SPLINE
  5
2df
100
AcDbEntity
  8
0
 62
7
100
AcDbSpline
 70
8
 71
3
 72
8
 73
4
 74
0
 40
0
 40
0
 40
0
 40
0
 40
1
 40
1
 40
1
 40
1
 10
269.735064
 20
157.057729
 30
0.0
 10
271.531149
 20
157.954416
 30
0.0
 10
272.808961
 20
158.787470
 30
0.0
 10
273.568051
 20
159.556132
 30
0.0
  0
SPLINE
  5
2e0
100
AcDbEntity
  8
0
 62
7
100
AcDbSpline
 70
8
 71
3
 72
8
 73
4
 74
0
 40
0
 40
0
 40
0
 40
0
 40
1
 40
1
 40
1
 40
1
 10
273.568051
 20
159.556132
 30
0.0
 10
274.327390
 20
160.324556
 30
0.0
 10
275.225235
 20
161.349055
 30
0.0
 10
276.262229
 20
162.630305
 30
0.0
  0
SPLINE
  5
2e1
100
AcDbEntity
  8
0
 62
7
100
AcDbSpline
 70
8
 71
3
 72
8
 73
4
 74
0
 40
0
 40
0
 40
0
 40
0
 40
1
 40
1
 40
1
 40
1
 10
276.262229
 20
162.630305
 30
0.0
 10
277.298976
 20
163.911341
 30
0.0
 10
278.093443
 20
165.320647
 30
0.0
 10
278.646275
 20
166.857734
 30
0.0
  0
SPLINE
  5
2e2
100
AcDbEntity
  8
0
 62
7
100
AcDbSpline
 70
8
 71
3
 72
8
 73
4
 74
0
 40
0
 40
0
 40
0
 40
0
 40
1
 40
1
 40
1
 40
1
 10
278.646275
 20
166.857734
 30
0.0
 10
280.164705
 20
171.086273
 30
0.0
 10
280.923919
 20
176.146659
 30
0.0
 10
280.923919
 20
182.039398
 30
0.0
  0
LWPOLYLINE
  5
2e3
100
AcDbEntity
  8
0
 62
7
100
AcDbPolyline
 90
2
 70
0
 10
241.963916
 20
148.411309
 30
0.0
 10
257.713514
 20
152.254197
 30
0.0
  0
SPLINE
  5
2e4
100
AcDbEntity
  8
0
 62
7
100
AcDbSpline
 70
8
 71
3
 72
8
 73
4
 74
0
 40
0
 40
0
 40
0
 40
0
 40
1
 40
1
 40
1
 40
1
 10
280.923919
 20
188.382023
 30
0.0
 10
280.923919
 20
190.814651
 30
0.0
 10
280.785984
 20
194.689616
 30
0.0
 10
280.509568
 20
200.006322
 30
0.0
  0
SPLINE
  5
2e5
100
AcDbEntity
  8
0
 62
7
100
AcDbSpline
 70
8
 71
3
 72
8
 73
4
 74
0
 40
0
 40
0
 40
0
 40
0
 40
1
 40
1
 40
1
 40
1
 10
280.509568
 20
200.006322
 30
0.0
 10
280.233400
 20
205.323027
 30
0.0
 10
280.095216
 20
209.711527
 30
0.0
 10
280.095216
 20
213.171408
 30
0.0
  0
SPLINE
  5
2e6
100
AcDbEntity
  8
0
 62
7
100
AcDbSpline
 70
8
 71
3
 72
8
 73
4
 74
0
 40
0
 40
0
 40
0
 40
0
 40
1
 40
1
 40
1
 40
1
 10
280.095216
 20
213.171408
 30
0.0
 10
279.818800
 20
266.975866
 30
0.0
 10
279.680518
 20
301.180693
 30
0.0
 10
279.680518
 20
315.786346
 30
0.0
  0
LWPOLYLINE
  5
2e7
100
AcDbEntity
  8
0
 62
7
100
AcDbPolyline
 90
2
 70
0
 10
280.923919
 20
182.039398
 30
0.0
 10
280.923919
 20
188.382023
 30
0.0
  0
LWPOLYLINE
  5
2e8
100
AcDbEntity
  8
0
 62
7
100
AcDbPolyline
 90
1
 70
1
 10
279.680518
 20
315.786346
 30
0.0
  0
SPLINE
  5
2e9
100
AcDbEntity
  8
0
 62
7
100
AcDbSpline
 70
8
 71
3
 72
8
 73
4
 74
0
 40
0
 40
0
 40
0
 40
0
 40
1
 40
1
 40
1
 40
1
 10
160.367453
 20
314.978565
 30
0.0
 10
158.572855
 20
311.904163
 30
0.0
 10
157.675457
 20
308.894282
 30
0.0
 10
157.675457
 20
305.949315
 30
0.0
  0
LWPOLYLINE
  5
2ea
100
AcDbEntity
  8
0
 62
7
100
AcDbPolyline
 90
2
 70
0
 10
131.145554
 20
314.978565
 30
0.0
 10
160.367453
 20
314.978565
 30
0.0
  0
SPLINE
  5
2eb
100
AcDbEntity
  8
0
 62
7
100
AcDbSpline
 70
8
 71
3
 72
8
 73
4
 74
0
 40
0
 40
0
 40
0
 40
0
 40
1
 40
1
 40
1
 40
1
 10
157.675457
 20
305.755358
 30
0.0
 10
157.675457
 20
303.193317
 30
0.0
 10
158.435267
 20
300.470764
 30
0.0
 10
159.954936
 20
297.588089
 30
0.0
  0
SPLINE
  5
2ec
100
AcDbEntity
  8
0
 62
7
100
AcDbSpline
 70
8
 71
3
 72
8
 73
4
 74
0
 40
0
 40
0
 40
0
 40
0
 40
1
 40
1
 40
1
 40
1
 10
159.954936
 20
297.588089
 30
0.0
 10
161.474605
 20
294.705139
 30
0.0
 10
162.234762
 20
292.623418
 30
0.0
 10
162.234762
 20
291.342420
 30
0.0
  0
LWPOLYLINE
  5
2ed
100
AcDbEntity
  8
0
 62
7
100
AcDbPolyline
 90
2
 70
0
 10
157.675457
 20
305.949315
 30
0.0
 10
157.675457
 20
305.755358
 30
0.0
  0
SPLINE
  5
2ee
100
AcDbEntity
  8
0
 62
7
100
AcDbSpline
 70
8
 71
3
 72
8
 73
4
 74
0
 40
0
 40
0
 40
0
 40
0
 40
1
 40
1
 40
1
 40
1
 10
162.234762
 20
290.767651
 30
0.0
 10
162.095191
 20
288.461676
 30
0.0
 10
160.747767
 20
285.002393
 30
0.0
 10
158.192591
 20
280.389525
 30
0.0
  0
SPLINE
  5
2ef
100
AcDbEntity
  8
0
 62
7
100
AcDbSpline
 70
8
 71
3
 72
8
 73
4
 74
0
 40
0
 40
0
 40
0
 40
0
 40
1
 40
1
 40
1
 40
1
 10
158.192591
 20
280.389525
 30
0.0
 10
155.637415
 20
275.776887
 30
0.0
 10
154.359604
 20
271.741639
 30
0.0
 10
154.359604
 20
268.284056
 30
0.0
  0
LWPOLYLINE
  5
2f0
100
AcDbEntity
  8
0
 62
7
100
AcDbPolyline
 90
2
 70
0
 10
162.234762
 20
291.342420
 30
0.0
 10
162.234762
 20
290.767651
 30
0.0
  0
SPLINE
  5
2f1
100
AcDbEntity
  8
0
 62
7
100
AcDbSpline
 70
8
 71
3
 72
8
 73
4
 74
0
 40
0
 40
0
 40
0
 40
0
 40
1
 40
1
 40
1
 40
1
 10
154.359604
 20
267.321740
 30
0.0
 10
154.496448
 20
263.864157
 30
0.0
 10
156.223020
 20
260.213928
 30
0.0
 10
159.538775
 20
256.370867
 30
0.0
  0
LWPOLYLINE
  5
2f2
100
AcDbEntity
  8
0
 62
7
100
AcDbPolyline
 90
2
 70
0
 10
154.359604
 20
268.284056
 30
0.0
 10
154.359604
 20
267.321740
 30
0.0
  0
SPLINE
  5
2f3
100
AcDbEntity
  8
0
 62
7
100
AcDbSpline
 70
8
 71
3
 72
8
 73
4
 74
0
 40
0
 40
0
 40
0
 40
0
 40
1
 40
1
 40
1
 40
1
 10
131.769090
 20
256.370867
 30
0.0
 10
135.084844
 20
260.213928
 30
0.0
 10
136.811416
 20
263.864157
 30
0.0
 10
136.948261
 20
267.321740
 30
0.0
  0
LWPOLYLINE
  5
2f4
100
AcDbEntity
  8
0
 62
7
100
AcDbPolyline
 90
2
 70
0
 10
159.538775
 20
256.370867
 30
0.0
 10
131.769090
 20
256.370867
 30
0.0
  0
SPLINE
  5
2f5
100
AcDbEntity
  8
0
 62
7
100
AcDbSpline
 70
8
 71
3
 72
8
 73
4
 74
0
 40
0
 40
0
 40
0
 40
0
 40
1
 40
1
 40
1
 40
1
 10
136.948261
 20
268.090099
 30
0.0
 10
136.948261
 20
271.549980
 30
0.0
 10
135.670425
 20
275.618259
 30
0.0
 10
133.115249
 20
280.294569
 30
0.0
  0
SPLINE
  5
2f6
100
AcDbEntity
  8
0
 62
7
100
AcDbSpline
 70
8
 71
3
 72
8
 73
4
 74
0
 40
0
 40
0
 40
0
 40
0
 40
1
 40
1
 40
1
 40
1
 10
133.115249
 20
280.294569
 30
0.0
 10
130.559825
 20
284.970879
 30
0.0
 10
129.212674
 20
288.461676
 30
0.0
 10
129.073102
 20
290.767651
 30
0.0
  0
LWPOLYLINE
  5
2f7
100
AcDbEntity
  8
0
 62
7
100
AcDbPolyline
 90
2
 70
0
 10
136.948261
 20
267.321740
 30
0.0
 10
136.948261
 20
268.090099
 30
0.0
  0
SPLINE
  5
2f8
100
AcDbEntity
  8
0
 62
7
100
AcDbSpline
 70
8
 71
3
 72
8
 73
4
 74
0
 40
0
 40
0
 40
0
 40
0
 40
1
 40
1
 40
1
 40
1
 10
129.073102
 20
291.342420
 30
0.0
 10
129.073102
 20
292.496327
 30
0.0
 10
129.833234
 20
294.514813
 30
0.0
 10
131.352904
 20
297.397488
 30
0.0
  0
SPLINE
  5
2f9
100
AcDbEntity
  8
0
 62
7
100
AcDbSpline
 70
8
 71
3
 72
8
 73
4
 74
0
 40
0
 40
0
 40
0
 40
0
 40
1
 40
1
 40
1
 40
1
 10
131.352904
 20
297.397488
 30
0.0
 10
132.872573
 20
300.280438
 30
0.0
 10
133.632383
 20
303.003083
 30
0.0
 10
133.632383
 20
305.565124
 30
0.0
  0
LWPOLYLINE
  5
2fa
100
AcDbEntity
  8
0
 62
7
100
AcDbPolyline
 90
2
 70
0
 10
129.073102
 20
290.767651
 30
0.0
 10
129.073102
 20
291.342420
 30
0.0
  0
SPLINE
  5
2fb
100
AcDbEntity
  8
0
 62
7
100
AcDbSpline
 70
8
 71
3
 72
8
 73
4
 74
0
 40
0
 40
0
 40
0
 40
0
 40
1
 40
1
 40
1
 40
1
 10
133.632383
 20
305.755358
 30
0.0
 10
133.632383
 20
308.573464
 30
0.0
 10
132.803555
 20
311.647867
 30
0.0
 10
131.145554
 20
314.978565
 30
0.0
  0
LWPOLYLINE
  5
2fc
100
AcDbEntity
  8
0
 62
7
100
AcDbPolyline
 90
2
 70
0
 10
133.632383
 20
305.565124
 30
0.0
 10
133.632383
 20
305.755358
 30
0.0
  0
SPLINE
  5
2fd
100
AcDbEntity
  8
0
 62
7
100
AcDbSpline
 70
8
 71
3
 72
8
 73
4
 74
0
 40
0
 40
0
 40
0
 40
0
 40
1
 40
1
 40
1
 40
1
 10
352.543720
 20
273.970103
 30
0.0
 10
348.813539
 20
273.970103
 30
0.0
 10
343.701427
 20
271.920678
 30
0.0
 10
337.207730
 20
267.821413
 30
0.0
  0
SPLINE
  5
2fe
100
AcDbEntity
  8
0
 62
7
100
AcDbSpline
 70
8
 71
3
 72
8
 73
4
 74
0
 40
0
 40
0
 40
0
 40
0
 40
1
 40
1
 40
1
 40
1
 10
337.207730
 20
267.821413
 30
0.0
 10
336.101792
 20
267.052709
 30
0.0
 10
335.549629
 20
266.027824
 30
0.0
 10
335.549629
 20
264.746896
 30
0.0
  0
LWPOLYLINE
  5
2ff
100
AcDbEntity
  8
0
 62
7
100
AcDbPolyline
 90
1
 70
1
 10
131.145554
 20
314.978565
 30
0.0
  0
SPLINE
  5
300
100
AcDbEntity
  8
0
 62
7
100
AcDbSpline
 70
8
 71
3
 72
8
 73
4
 74
0
 40
0
 40
0
 40
0
 40
0
 40
1
 40
1
 40
1
 40
1
 10
335.549629
 20
183.651902
 30
0.0
 10
335.549629
 20
182.500317
 30
0.0
 10
335.962543
 20
181.571767
 30
0.0
 10
336.792659
 20
180.866620
 30
0.0
  0
SPLINE
  5
301
100
AcDbEntity
  8
0
 62
7
100
AcDbSpline
 70
8
 71
3
 72
8
 73
4
 74
0
 40
0
 40
0
 40
0
 40
0
 40
1
 40
1
 40
1
 40
1
 10
336.792659
 20
180.866620
 30
0.0
 10
337.622800
 20
180.161725
 30
0.0
 10
338.589488
 20
179.809002
 30
0.0
 10
339.692748
 20
179.809002
 30
0.0
  0
LWPOLYLINE
  5
302
100
AcDbEntity
  8
0
 62
7
100
AcDbPolyline
 90
2
 70
0
 10
335.549629
 20
264.746896
 30
0.0
 10
335.549629
 20
183.651902
 30
0.0
  0
SPLINE
  5
303
100
AcDbEntity
  8
0
 62
7
100
AcDbSpline
 70
8
 71
3
 72
8
 73
4
 74
0
 40
0
 40
0
 40
0
 40
0
 40
1
 40
1
 40
1
 40
1
 10
499.692539
 20
179.424834
 30
0.0
 10
500.795799
 20
179.424834
 30
0.0
 10
501.765190
 20
179.777281
 30
0.0
 10
502.592604
 20
180.482429
 30
0.0
  0
SPLINE
  5
304
100
AcDbEntity
  8
0
 62
7
100
AcDbSpline
 70
8
 71
3
 72
8
 73
4
 74
0
 40
0
 40
0
 40
0
 40
0
 40
1
 40
1
 40
1
 40
1
 10
502.592604
 20
180.482429
 30
0.0
 10
503.422720
 20
181.187576
 30
0.0
 10
503.834939
 20
182.052776
 30
0.0
 10
503.834939
 20
183.077477
 30
0.0
  0
LWPOLYLINE
  5
305
100
AcDbEntity
  8
0
 62
7
100
AcDbPolyline
 90
2
 70
0
 10
339.692748
 20
179.809002
 30
0.0
 10
499.692539
 20
179.424834
 30
0.0
  0
SPLINE
  5
306
100
AcDbEntity
  8
0
 62
7
100
AcDbSpline
 70
8
 71
3
 72
8
 73
4
 74
0
 40
0
 40
0
 40
0
 40
0
 40
1
 40
1
 40
1
 40
1
 10
504.665080
 20
263.978192
 30
0.0
 10
504.665080
 20
264.617529
 30
0.0
 10
504.319796
 20
265.386165
 30
0.0
 10
503.631556
 20
266.284005
 30
0.0
  0
SPLINE
  5
307
100
AcDbEntity
  8
0
 62
7
100
AcDbSpline
 70
8
 71
3
 72
8
 73
4
 74
0
 40
0
 40
0
 40
0
 40
0
 40
1
 40
1
 40
1
 40
1
 10
503.631556
 20
266.284005
 30
0.0
 10
503.492332
 20
266.540232
 30
0.0
 10
502.798713
 20
267.148493
 30
0.0
 10
501.556204
 20
268.108626
 30
0.0
  0
SPLINE
  5
308
100
AcDbEntity
  8
0
 62
7
100
AcDbSpline
 70
8
 71
3
 72
8
 73
4
 74
0
 40
0
 40
0
 40
0
 40
0
 40
1
 40
1
 40
1
 40
1
 10
501.556204
 20
268.108626
 30
0.0
 10
500.313695
 20
269.068759
 30
0.0
 10
498.415026
 20
270.093644
 30
0.0
 10
495.857742
 20
271.183143
 30
0.0
  0
SPLINE
  5
309
100
AcDbEntity
  8
0
 62
7
100
AcDbSpline
 70
8
 71
3
 72
8
 73
4
 74
0
 40
0
 40
0
 40
0
 40
0
 40
1
 40
1
 40
1
 40
1
 10
495.857742
 20
271.183143
 30
0.0
 10
493.303087
 20
272.272390
 30
0.0
 10
490.850321
 20
272.817208
 30
0.0
 10
488.501874
 20
272.817208
 30
0.0
  0
SPLINE
  5
30a
100
AcDbEntity
  8
0
 62
7
100
AcDbSpline
 70
8
 71
3
 72
8
 73
4
 74
0
 40
0
 40
0
 40
0
 40
0
 40
1
 40
1
 40
1
 40
1
 10
488.501874
 20
272.817208
 30
0.0
 10
484.493171
 20
272.817208
 30
0.0
 10
481.003931
 20
272.144357
 30
0.0
 10
478.034230
 20
270.798630
 30
0.0
  0
SPLINE
  5
30b
100
AcDbEntity
  8
0
 62
7
100
AcDbSpline
 70
8
 71
3
 72
8
 73
4
 74
0
 40
0
 40
0
 40
0
 40
0
 40
1
 40
1
 40
1
 40
1
 10
478.034230
 20
270.798630
 30
0.0
 10
475.064504
 20
269.452881
 30
0.0
 10
472.611762
 20
267.435107
 30
0.0
 10
470.678362
 20
264.744873
 30
0.0
  0
SPLINE
  5
30c
100
AcDbEntity
  8
0
 62
7
100
AcDbSpline
 70
8
 71
3
 72
8
 73
4
 74
0
 40
0
 40
0
 40
0
 40
0
 40
1
 40
1
 40
1
 40
1
 10
470.678362
 20
264.744873
 30
0.0
 10
468.744985
 20
262.054914
 30
0.0
 10
467.188948
 20
259.461107
 30
0.0
 10
466.013399
 20
256.963819
 30
0.0
  0
SPLINE
  5
30d
100
AcDbEntity
  8
0
 62
7
100
AcDbSpline
 70
8
 71
3
 72
8
 73
4
 74
0
 40
0
 40
0
 40
0
 40
0
 40
1
 40
1
 40
1
 40
1
 10
466.013399
 20
256.963819
 30
0.0
 10
464.840502
 20
254.466507
 30
0.0
 10
463.493698
 20
251.359786
 30
0.0
 10
461.972690
 20
247.643632
 30
0.0
  0
SPLINE
  5
30e
100
AcDbEntity
  8
0
 62
7
100
AcDbSpline
 70
8
 71
3
 72
8
 73
4
 74
0
 40
0
 40
0
 40
0
 40
0
 40
1
 40
1
 40
1
 40
1
 10
461.972690
 20
247.643632
 30
0.0
 10
460.451682
 20
243.927478
 30
0.0
 10
459.139437
 20
241.044826
 30
0.0
 10
458.036202
 20
238.995171
 30
0.0
  0
SPLINE
  5
30f
100
AcDbEntity
  8
0
 62
7
100
AcDbSpline
 70
8
 71
3
 72
8
 73
4
 74
0
 40
0
 40
0
 40
0
 40
0
 40
1
 40
1
 40
1
 40
1
 10
458.036202
 20
238.995171
 30
0.0
 10
453.890926
 20
231.438462
 30
0.0
 10
448.364115
 20
225.289611
 30
0.0
 10
441.455372
 20
220.548756
 30
0.0
  0
SPLINE
  5
310
100
AcDbEntity
  8
0
 62
7
100
AcDbSpline
 70
8
 71
3
 72
8
 73
4
 74
0
 40
0
 40
0
 40
0
 40
0
 40
1
 40
1
 40
1
 40
1
 10
441.455372
 20
220.548756
 30
0.0
 10
434.546604
 20
215.807900
 30
0.0
 10
427.083491
 20
213.437404
 30
0.0
 10
419.071488
 20
213.437404
 30
0.0
  0
SPLINE
  5
311
100
AcDbEntity
  8
0
 62
7
100
AcDbSpline
 70
8
 71
3
 72
8
 73
4
 74
0
 40
0
 40
0
 40
0
 40
0
 40
1
 40
1
 40
1
 40
1
 10
419.071488
 20
213.437404
 30
0.0
 10
410.505141
 20
213.437404
 30
0.0
 10
403.009998
 20
215.519263
 30
0.0
 10
396.585913
 20
219.683096
 30
0.0
  0
SPLINE
  5
312
100
AcDbEntity
  8
0
 62
7
100
AcDbSpline
 70
8
 71
3
 72
8
 73
4
 74
0
 40
0
 40
0
 40
0
 40
0
 40
1
 40
1
 40
1
 40
1
 10
396.585913
 20
219.683096
 30
0.0
 10
390.159151
 20
223.846906
 30
0.0
 10
385.151382
 20
229.580282
 30
0.0
 10
381.560426
 20
236.882993
 30
0.0
  0
SPLINE
  5
313
100
AcDbEntity
  8
0
 62
7
100
AcDbSpline
 70
8
 71
3
 72
8
 73
4
 74
0
 40
0
 40
0
 40
0
 40
0
 40
1
 40
1
 40
1
 40
1
 10
381.560426
 20
236.882993
 30
0.0
 10
380.454489
 20
239.059509
 30
0.0
 10
379.244406
 20
242.101984
 30
0.0
 10
377.932260
 20
246.009567
 30
0.0
  0
SPLINE
  5
314
100
AcDbEntity
  8
0
 62
7
100
AcDbSpline
 70
8
 71
3
 72
8
 73
4
 74
0
 40
0
 40
0
 40
0
 40
0
 40
1
 40
1
 40
1
 40
1
 10
377.932260
 20
246.009567
 30
0.0
 10
376.620138
 20
249.917150
 30
0.0
 10
375.374902
 20
253.280029
 30
0.0
 10
374.202030
 20
256.098136
 30
0.0
  0
SPLINE
  5
315
100
AcDbEntity
  8
0
 62
7
100
AcDbSpline
 70
8
 71
3
 72
8
 73
4
 74
0
 40
0
 40
0
 40
0
 40
0
 40
1
 40
1
 40
1
 40
1
 10
374.202030
 20
256.098136
 30
0.0
 10
373.029133
 20
258.916472
 30
0.0
 10
371.542708
 20
261.798664
 30
0.0
 10
369.745879
 20
264.744873
 30
0.0
  0
SPLINE
  5
316
100
AcDbEntity
  8
0
 62
7
100
AcDbSpline
 70
8
 71
3
 72
8
 73
4
 74
0
 40
0
 40
0
 40
0
 40
0
 40
1
 40
1
 40
1
 40
1
 10
369.745879
 20
264.744873
 30
0.0
 10
367.951752
 20
267.691334
 30
0.0
 10
365.600702
 20
269.965611
 30
0.0
 10
362.697961
 20
271.567334
 30
0.0
  0
SPLINE
  5
317
100
AcDbEntity
  8
0
 62
7
100
AcDbSpline
 70
8
 71
3
 72
8
 73
4
 74
0
 40
0
 40
0
 40
0
 40
0
 40
1
 40
1
 40
1
 40
1
 10
362.697961
 20
271.567334
 30
0.0
 10
359.797872
 20
273.169311
 30
0.0
 10
356.410497
 20
273.970103
 30
0.0
 10
352.543720
 20
273.970103
 30
0.0
  0
LWPOLYLINE
  5
318
100
AcDbEntity
  8
0
 62
7
100
AcDbPolyline
 90
3
 70
0
 10
503.834939
 20
183.077477
 30
0.0
 10
503.834939
 20
183.268033
 30
0.0
 10
504.665080
 20
263.978192
 30
0.0
  0
SPLINE
  5
319
100
AcDbEntity
  8
0
 62
7
100
AcDbSpline
 70
8
 71
3
 72
8
 73
4
 74
0
 40
0
 40
0
 40
0
 40
0
 40
1
 40
1
 40
1
 40
1
 10
352.543720
 20
266.284005
 30
0.0
 10
356.686318
 20
266.284005
 30
0.0
 10
359.864757
 20
264.842840
 30
0.0
 10
362.076632
 20
261.959935
 30
0.0
  0
SPLINE
  5
31a
100
AcDbEntity
  8
0
 62
7
100
AcDbSpline
 70
8
 71
3
 72
8
 73
4
 74
0
 40
0
 40
0
 40
0
 40
0
 40
1
 40
1
 40
1
 40
1
 10
362.076632
 20
261.959935
 30
0.0
 10
364.288506
 20
259.077054
 30
0.0
 10
366.500629
 20
254.336727
 30
0.0
 10
368.709826
 20
247.738910
 30
0.0
  0
SPLINE
  5
31b
100
AcDbEntity
  8
0
 62
7
100
AcDbSpline
 70
8
 71
3
 72
8
 73
4
 74
0
 40
0
 40
0
 40
0
 40
0
 40
1
 40
1
 40
1
 40
1
 10
368.709826
 20
247.738910
 30
0.0
 10
370.921701
 20
241.141093
 30
0.0
 10
372.718233
 20
236.433223
 30
0.0
 10
374.099991
 20
233.614886
 30
0.0
  0
SPLINE
  5
31c
100
AcDbEntity
  8
0
 62
7
100
AcDbSpline
 70
8
 71
3
 72
8
 73
4
 74
0
 40
0
 40
0
 40
0
 40
0
 40
1
 40
1
 40
1
 40
1
 10
374.099991
 20
233.614886
 30
0.0
 10
378.521063
 20
224.904109
 30
0.0
 10
384.599814
 20
218.082384
 30
0.0
 10
392.336021
 20
213.149870
 30
0.0
  0
SPLINE
  5
31d
100
AcDbEntity
  8
0
 62
7
100
AcDbSpline
 70
8
 71
3
 72
8
 73
4
 74
0
 40
0
 40
0
 40
0
 40
0
 40
1
 40
1
 40
1
 40
1
 10
392.336021
 20
213.149870
 30
0.0
 10
400.072228
 20
208.217585
 30
0.0
 10
408.984157
 20
205.751305
 30
0.0
 10
419.071488
 20
205.751305
 30
0.0
  0
SPLINE
  5
31e
100
AcDbEntity
  8
0
 62
7
100
AcDbSpline
 70
8
 71
3
 72
8
 73
4
 74
0
 40
0
 40
0
 40
0
 40
0
 40
1
 40
1
 40
1
 40
1
 10
419.071488
 20
205.751305
 30
0.0
 10
429.019570
 20
205.751305
 30
0.0
 10
438.033092
 20
208.537737
 30
0.0
 10
446.117409
 20
214.110830
 30
0.0
  0
SPLINE
  5
31f
100
AcDbEntity
  8
0
 62
7
100
AcDbSpline
 70
8
 71
3
 72
8
 73
4
 74
0
 40
0
 40
0
 40
0
 40
0
 40
1
 40
1
 40
1
 40
1
 10
446.117409
 20
214.110830
 30
0.0
 10
454.199074
 20
219.683716
 30
0.0
 10
460.590808
 20
226.825732
 30
0.0
 10
465.290378
 20
235.536485
 30
0.0
  0
SPLINE
  5
320
100
AcDbEntity
  8
0
 62
7
100
AcDbSpline
 70
8
 71
3
 72
8
 73
4
 74
0
 40
0
 40
0
 40
0
 40
0
 40
1
 40
1
 40
1
 40
1
 10
465.290378
 20
235.536485
 30
0.0
 10
466.672137
 20
237.971458
 30
0.0
 10
468.053945
 20
240.886084
 30
0.0
 10
469.435679
 20
244.280224
 30
0.0
  0
SPLINE
  5
321
100
AcDbEntity
  8
0
 62
7
100
AcDbSpline
 70
8
 71
3
 72
8
 73
4
 74
0
 40
0
 40
0
 40
0
 40
0
 40
1
 40
1
 40
1
 40
1
 10
469.435679
 20
244.280224
 30
0.0
 10
470.817437
 20
247.674342
 30
0.0
 10
471.955429
 20
250.428248
 30
0.0
 10
472.852505
 20
252.542448
 30
0.0
  0
SPLINE
  5
322
100
AcDbEntity
  8
0
 62
7
100
AcDbSpline
 70
8
 71
3
 72
8
 73
4
 74
0
 40
0
 40
0
 40
0
 40
0
 40
1
 40
1
 40
1
 40
1
 10
472.852505
 20
252.542448
 30
0.0
 10
473.749581
 20
254.656879
 30
0.0
 10
474.890473
 20
256.771240
 30
0.0
 10
476.272231
 20
258.885418
 30
0.0
  0
SPLINE
  5
323
100
AcDbEntity
  8
0
 62
7
100
AcDbSpline
 70
8
 71
3
 72
8
 73
4
 74
0
 40
0
 40
0
 40
0
 40
0
 40
1
 40
1
 40
1
 40
1
 10
476.272231
 20
258.885418
 30
0.0
 10
477.653990
 20
260.999848
 30
0.0
 10
479.346351
 20
262.569299
 30
0.0
 10
481.349364
 20
263.594001
 30
0.0
  0
SPLINE
  5
324
100
AcDbEntity
  8
0
 62
7
100
AcDbSpline
 70
8
 71
3
 72
8
 73
4
 74
0
 40
0
 40
0
 40
0
 40
0
 40
1
 40
1
 40
1
 40
1
 10
481.349364
 20
263.594001
 30
0.0
 10
483.355055
 20
264.618932
 30
0.0
 10
485.738382
 20
265.131087
 30
0.0
 10
488.501874
 20
265.131087
 30
0.0
  0
SPLINE
  5
325
100
AcDbEntity
  8
0
 62
7
100
AcDbSpline
 70
8
 71
3
 72
8
 73
4
 74
0
 40
0
 40
0
 40
0
 40
0
 40
1
 40
1
 40
1
 40
1
 10
488.501874
 20
265.131087
 30
0.0
 10
491.956258
 20
265.131087
 30
0.0
 10
494.580352
 20
264.234488
 30
0.0
 10
496.374479
 20
262.441082
 30
0.0
  0
LWPOLYLINE
  5
326
100
AcDbEntity
  8
0
 62
7
100
AcDbPolyline
 90
1
 70
1
 10
352.543720
 20
273.970103
 30
0.0
  0
SPLINE
  5
327
100
AcDbEntity
  8
0
 62
7
100
AcDbSpline
 70
8
 71
3
 72
8
 73
4
 74
0
 40
0
 40
0
 40
0
 40
0
 40
1
 40
1
 40
1
 40
1
 10
343.838024
 20
262.825296
 30
0.0
 10
347.295110
 20
265.130903
 30
0.0
 10
350.195273
 20
266.284005
 30
0.0
 10
352.543720
 20
266.284005
 30
0.0
  0
LWPOLYLINE
  5
328
100
AcDbEntity
  8
0
 62
7
100
AcDbPolyline
 90
4
 70
0
 10
496.374479
 20
262.441082
 30
0.0
 10
495.547239
 20
187.110956
 30
0.0
 10
343.838024
 20
187.495124
 30
0.0
 10
343.838024
 20
262.825296
 30
0.0
  0
SPLINE
  5
329
100
AcDbEntity
  8
0
 62
7
100
AcDbSpline
 70
8
 71
3
 72
8
 73
4
 74
0
 40
0
 40
0
 40
0
 40
0
 40
1
 40
1
 40
1
 40
1
 10
145.656089
 20
244.263720
 30
0.0
 10
146.345518
 20
242.982700
 30
0.0
 10
146.932091
 20
241.701519
 30
0.0
 10
147.416253
 20
240.420476
 30
0.0
  0
SPLINE
  5
32a
100
AcDbEntity
  8
0
 62
7
100
AcDbSpline
 70
8
 71
3
 72
8
 73
4
 74
0
 40
0
 40
0
 40
0
 40
0
 40
1
 40
1
 40
1
 40
1
 10
147.416253
 20
240.420476
 30
0.0
 10
147.900415
 20
239.139455
 30
0.0
 10
148.315188
 20
237.794740
 30
0.0
 10
148.660026
 20
236.385664
 30
0.0
  0
SPLINE
  5
32b
100
AcDbEntity
  8
0
 62
7
100
AcDbSpline
 70
8
 71
3
 72
8
 73
4
 74
0
 40
0
 40
0
 40
0
 40
0
 40
1
 40
1
 40
1
 40
1
 10
148.660026
 20
236.385664
 30
0.0
 10
149.004617
 20
234.976611
 30
0.0
 10
149.280735
 20
233.855161
 30
0.0
 10
149.488729
 20
233.021911
 30
0.0
  0
SPLINE
  5
32c
100
AcDbEntity
  8
0
 62
7
100
AcDbSpline
 70
8
 71
3
 72
8
 73
4
 74
0
 40
0
 40
0
 40
0
 40
0
 40
1
 40
1
 40
1
 40
1
 10
149.488729
 20
233.021911
 30
0.0
 10
149.696475
 20
232.188662
 30
0.0
 10
149.869589
 20
230.906929
 30
0.0
 10
150.007673
 20
229.177012
 30
0.0
  0
SPLINE
  5
32d
100
AcDbEntity
  8
0
 62
7
100
AcDbSpline
 70
8
 71
3
 72
8
 73
4
 74
0
 40
0
 40
0
 40
0
 40
0
 40
1
 40
1
 40
1
 40
1
 10
150.007673
 20
229.177012
 30
0.0
 10
150.146005
 20
227.447071
 30
0.0
 10
150.249357
 20
226.262064
 30
0.0
 10
150.317780
 20
225.621669
 30
0.0
  0
SPLINE
  5
32e
100
AcDbEntity
  8
0
 62
7
100
AcDbSpline
 70
8
 71
3
 72
8
 73
4
 74
0
 40
0
 40
0
 40
0
 40
0
 40
1
 40
1
 40
1
 40
1
 10
150.317780
 20
225.621669
 30
0.0
 10
150.386202
 20
224.981044
 30
0.0
 10
150.524385
 20
223.571945
 30
0.0
 10
150.732131
 20
221.394234
 30
0.0
  0
SPLINE
  5
32f
100
AcDbEntity
  8
0
 62
7
100
AcDbSpline
 70
8
 71
3
 72
8
 73
4
 74
0
 40
0
 40
0
 40
0
 40
0
 40
1
 40
1
 40
1
 40
1
 10
150.732131
 20
221.394234
 30
0.0
 10
150.940125
 20
219.216522
 30
0.0
 10
151.044072
 20
217.807768
 30
0.0
 10
151.044072
 20
217.168522
 30
0.0
  0
SPLINE
  5
330
100
AcDbEntity
  8
0
 62
7
100
AcDbSpline
 70
8
 71
3
 72
8
 73
4
 74
0
 40
0
 40
0
 40
0
 40
0
 40
1
 40
1
 40
1
 40
1
 10
151.044072
 20
217.168522
 30
0.0
 10
151.320241
 20
211.532056
 30
0.0
 10
151.458424
 20
207.561077
 30
0.0
 10
151.458424
 20
205.255332
 30
0.0
  0
SPLINE
  5
331
100
AcDbEntity
  8
0
 62
7
100
AcDbSpline
 70
8
 71
3
 72
8
 73
4
 74
0
 40
0
 40
0
 40
0
 40
0
 40
1
 40
1
 40
1
 40
1
 10
151.458424
 20
205.255332
 30
0.0
 10
151.458424
 20
198.079275
 30
0.0
 10
150.974758
 20
188.214384
 30
0.0
 10
150.007673
 20
175.660731
 30
0.0
  0
SPLINE
  5
332
100
AcDbEntity
  8
0
 62
7
100
AcDbSpline
 70
8
 71
3
 72
8
 73
4
 74
0
 40
0
 40
0
 40
0
 40
0
 40
1
 40
1
 40
1
 40
1
 10
150.007673
 20
175.660731
 30
0.0
 10
149.040588
 20
163.107032
 30
0.0
 10
148.487657
 20
152.666000
 30
0.0
 10
148.348085
 20
144.338099
 30
0.0
  0
SPLINE
  5
333
100
AcDbEntity
  8
0
 62
7
100
AcDbSpline
 70
8
 71
3
 72
8
 73
4
 74
0
 40
0
 40
0
 40
0
 40
0
 40
1
 40
1
 40
1
 40
1
 10
148.348085
 20
144.338099
 30
0.0
 10
148.348085
 20
142.159250
 30
0.0
 10
148.694163
 20
140.109905
 30
0.0
 10
149.386319
 20
138.189409
 30
0.0
  0
LWPOLYLINE
  5
334
100
AcDbEntity
  8
0
 62
7
100
AcDbPolyline
 90
1
 70
1
 10
352.543720
 20
266.284005
 30
0.0
  0
SPLINE
  5
335
100
AcDbEntity
  8
0
 62
7
100
AcDbSpline
 70
8
 71
3
 72
8
 73
4
 74
0
 40
0
 40
0
 40
0
 40
0
 40
1
 40
1
 40
1
 40
1
 10
143.165294
 20
138.189409
 30
0.0
 10
143.857450
 20
140.109905
 30
0.0
 10
144.203156
 20
142.094824
 30
0.0
 10
144.203156
 20
144.144498
 30
0.0
  0
LWPOLYLINE
  5
336
100
AcDbEntity
  8
0
 62
7
100
AcDbPolyline
 90
2
 70
0
 10
149.386319
 20
138.189409
 30
0.0
 10
143.165294
 20
138.189409
 30
0.0
  0
SPLINE
  5
337
100
AcDbEntity
  8
0
 62
7
100
AcDbSpline
 70
8
 71
3
 72
8
 73
4
 74
0
 40
0
 40
0
 40
0
 40
0
 40
1
 40
1
 40
1
 40
1
 10
144.203156
 20
144.338099
 30
0.0
 10
144.063833
 20
152.409699
 30
0.0
 10
143.303478
 20
162.754672
 30
0.0
 10
141.921893
 20
175.373174
 30
0.0
  0
SPLINE
  5
338
100
AcDbEntity
  8
0
 62
7
100
AcDbSpline
 70
8
 71
3
 72
8
 73
4
 74
0
 40
0
 40
0
 40
0
 40
0
 40
1
 40
1
 40
1
 40
1
 10
141.921893
 20
175.373174
 30
0.0
 10
140.540308
 20
187.991671
 30
0.0
 10
139.849416
 20
197.887846
 30
0.0
 10
139.849416
 20
205.061375
 30
0.0
  0
SPLINE
  5
339
100
AcDbEntity
  8
0
 62
7
100
AcDbSpline
 70
8
 71
3
 72
8
 73
4
 74
0
 40
0
 40
0
 40
0
 40
0
 40
1
 40
1
 40
1
 40
1
 10
139.849416
 20
205.061375
 30
0.0
 10
139.849416
 20
207.367349
 30
0.0
 10
139.987723
 20
211.338351
 30
0.0
 10
140.264115
 20
216.974564
 30
0.0
  0
SPLINE
  5
33a
100
AcDbEntity
  8
0
 62
7
100
AcDbSpline
 70
8
 71
3
 72
8
 73
4
 74
0
 40
0
 40
0
 40
0
 40
0
 40
1
 40
1
 40
1
 40
1
 10
140.264115
 20
216.974564
 30
0.0
 10
140.264115
 20
217.743222
 30
0.0
 10
140.367963
 20
219.152322
 30
0.0
 10
140.575709
 20
221.201977
 30
0.0
  0
SPLINE
  5
33b
100
AcDbEntity
  8
0
 62
7
100
AcDbSpline
 70
8
 71
3
 72
8
 73
4
 74
0
 40
0
 40
0
 40
0
 40
0
 40
1
 40
1
 40
1
 40
1
 10
140.575709
 20
221.201977
 30
0.0
 10
140.783703
 20
223.251655
 30
0.0
 10
140.921638
 20
224.660732
 30
0.0
 10
140.990060
 20
225.429413
 30
0.0
  0
SPLINE
  5
33c
100
AcDbEntity
  8
0
 62
7
100
AcDbSpline
 70
8
 71
3
 72
8
 73
4
 74
0
 40
0
 40
0
 40
0
 40
0
 40
1
 40
1
 40
1
 40
1
 10
140.990060
 20
225.429413
 30
0.0
 10
141.058483
 20
226.197818
 30
0.0
 10
141.162083
 20
227.415213
 30
0.0
 10
141.300167
 20
229.081711
 30
0.0
  0
SPLINE
  5
33d
100
AcDbEntity
  8
0
 62
7
100
AcDbSpline
 70
8
 71
3
 72
8
 73
4
 74
0
 40
0
 40
0
 40
0
 40
0
 40
1
 40
1
 40
1
 40
1
 10
141.300167
 20
229.081711
 30
0.0
 10
141.438499
 20
230.748210
 30
0.0
 10
141.611117
 20
232.029920
 30
0.0
 10
141.819110
 20
232.926634
 30
0.0
  0
SPLINE
  5
33e
100
AcDbEntity
  8
0
 62
7
100
AcDbSpline
 70
8
 71
3
 72
8
 73
4
 74
0
 40
0
 40
0
 40
0
 40
0
 40
1
 40
1
 40
1
 40
1
 10
141.819110
 20
232.926634
 30
0.0
 10
142.027104
 20
233.823325
 30
0.0
 10
142.303322
 20
234.976611
 30
0.0
 10
142.648161
 20
236.385664
 30
0.0
  0
SPLINE
  5
33f
100
AcDbEntity
  8
0
 62
7
100
AcDbSpline
 70
8
 71
3
 72
8
 73
4
 74
0
 40
0
 40
0
 40
0
 40
0
 40
1
 40
1
 40
1
 40
1
 10
142.648161
 20
236.385664
 30
0.0
 10
142.992751
 20
237.794740
 30
0.0
 10
143.407425
 20
239.139455
 30
0.0
 10
143.891587
 20
240.420476
 30
0.0
  0
SPLINE
  5
340
100
AcDbEntity
  8
0
 62
7
100
AcDbSpline
 70
8
 71
3
 72
8
 73
4
 74
0
 40
0
 40
0
 40
0
 40
0
 40
1
 40
1
 40
1
 40
1
 10
143.891587
 20
240.420476
 30
0.0
 10
144.375997
 20
241.701519
 30
0.0
 10
144.963958
 20
242.982700
 30
0.0
 10
145.656089
 20
244.263720
 30
0.0
  0
LWPOLYLINE
  5
341
100
AcDbEntity
  8
0
 62
7
100
AcDbPolyline
 90
2
 70
0
 10
144.203156
 20
144.144498
 30
0.0
 10
144.203156
 20
144.338099
 30
0.0
  0
LWPOLYLINE
  5
342
100
AcDbEntity
  8
0
 62
7
100
AcDbPolyline
 90
1
 70
1
 10
145.656089
 20
244.263720
 30
0.0
  0
ENDSEC
  0
SECTION
  2
OBJECTS
  0
DICTIONARY
  5
C
330
0
100
AcDbDictionary
  3
ACAD_GROUP
350
D
  3
ACAD_MLINESTYLE
350
17
  0
DICTIONARY
  5
D
330
C
100
AcDbDictionary
  0
DICTIONARY
  5
1A
330
C
100
AcDbDictionary
  0
DICTIONARY
  5
17
330
C
100
AcDbDictionary
  3
STANDARD
350
18
  0
DICTIONARY
  5
19
330
C
100
AcDbDictionary
  0
ENDSEC
  0
EOF
